Dying Fetus - Grotesque Impalement
From the Album Grotesque Impalement
Copyright 2000 Blunt Force Records
Version 1.0 - November - 2000
Transcribed by: Brian Quinones
For Questions, Comments, Newest Version, or Corrections contact
Brian: at [email protected]
Check Out Death Warp, With More Transcriptions On It:
http://tiger.towson.edu/~dalvis1
.. - palm mute / - slide up to
- slide down to ~ - vibrato
h - hammer on b - bend
p - pull off Suffixes for bend
ph - pinch harmonic
f - full bend h - half bend
* - see comment r - release t - tap bend
X - percussion mute ~ - vibrato bend
@ - slight palm mute () - ghost note, sustained note
Tune Gtr to C# (1 and 1/2 steps down)
Grotesque Impalement
Riff A
|-----------------------------------------------------------------------------|
|-----------------------------------------------------------------------------|
|-----------------------------------------------------------------------------|Gtr
|-4-------------------4-------------------4-----------------------------------| I
|-2----2----3----2----2----2----3----2----2----2----3----2----5-555-5-666-666-|
|---00-0-00-1-00-0-00---00-0-00-1-00-0-00---00-0-00-1-00-0-00-3-333-3-444-444-|
| .. .. .. .. .. .. .. .. .. .. .. .. . ... . ... ... |
|-----------------------------------------------------------------------------|
|-----------------------------------------------------------------------------|
|-----------------------------------------------------------------------------|Gtr
|-4---------------------------------------------------------------------------| II
|-2---------------------------------------------------------------------------|
|-------------------------------------------------------------3-333-3-444-444-|
. ... . ... ...
Repeat Riff A Four Times
Riff B (Verse)
|------------------------------------------------------------------------------------------------|
|------------------------------------------------------------------------------------------------|
|------------------------------------------------------------------------------------------------|
|-------------------------10-10------------------------------------------------------------------|
|---2---2----2---2---------8--8----2---2----2---2-----7h10p7h10p7h10p7h10p7-8h11p8h11p8h11p8h11p8|
|00-0-0-0-00-0-0-0-0-0-000------00-0-0-0-00-0-0-0-0-0--------------------------------------------|
.. . .. . . . ... .. . .. . . .
Last Time Play This
|------------------------------------------------------------------------------------|
|------------------------------------------------------------------------------------|
|------------------------------------------------------------------------------------| Play
|------------------------------------------------------------------------------------| 4 X
|7h10p7h10p7h10p7h10p7-8h11p8h11p8h11p8h11p8-7h10p7h10p7h10p7h10p7-6h9p6h9p6h9p6h9p6-|
|------------------------------------------------------------------------------------|
|--------------------------------------------------------------------|
|--------------------------------------------------------------------|
|--------------------------------------------------------------------|
|--------------------------------------------------------------------|
|5---6-5-3---6-5-2---6-5-3---6-5-2---5-6-5-6-------------------------|
|3---4-3-1---4-3-0---4-3-1---4-3-0---3-4-3-4-------------------------|
|------------------------------------------------------------------------------|
|------------------------------------------------------------------------------|
|------------------------------------------------------------------------------|
|------------------------------------------------------------------------------|Play Twice
|3333333333333-6---5--2222222222222-6---5-3333333333333-6---5-22222222-5-6-5-6-|
|1111111111111-4-0-3--0000000000000-4-0-3-1111111111111-4-0-3-00000000-3-4-3-4-|
............. . ............. . ............. . ........
|--------------------------------------------------------------|
|--------------------------------------------------------------|
|----------------------------------5---------------------------|PLay Four Times
|----------------------------44-33-----------------------------|
|5555-6-3333-5-2222----33-22-----------------------------------|
|3333-4-1111-3-0000--------------------------------------------|
.... . .... . .... .. .. .. ..
Too Distorted To hear, Email me if you know It
|--------------------------------------------------------------------|
|--------------------------------------------------------------------|
|--------------------------------------------------------------------|
|--------------------------------------------------------------------|
|--------------------------------------------------------------------|
|--------------------------------------------------------------------|
PLay 4 Times
|---------------|-----------------------------------------------------|
|---------------|-----------------------------------------------------|
|---------------|-----------------------------------------------------|
|---------------|------------------------------------4-3--------------|
|4-4-4-4-5-5-5-5|--54---54-------------54---54---2-1-1111111------|
|2-2-2-2-3-3-3-3|--32-0-32-00000000000-32-0-32-0------------------|
. ........... . . .......
|--------------------------------------------------------------------|
|--------------------------------------------------------------------|
|--------------------------------------------------------------------|
|--------------------------------------------------------------------|
|-54----54----5---6---5----54----5-4-3-2--------------------------|
|-32-00-32-00-3-0-4-0-3-00-32-00-3-2-1-0-00000000-----------------|
.. .. . . .. .. . . . ........
|-------------------------------|
|-------------------------------|
|-------------------------------|Repeat
|--5-4-----4--------------------|
|--3-2-5-4-2-4-3----------------|
|0-----3-2---2-1----------------|
. . . . . . . .
Riff Behind Solo
|--------------------------------------|
|--------------------------------------|
|--------------------------------------|
|----4---------------------------------|
|2-2-2---5---6---5---5-4---------------|
|0-0---0-3-0-4-0-3-0-3-2---------------|
. . . . . . . . .
There are all the riffs you need for the song, please contact me if you
figure out the middle part, thanks.
Check Out Death Warp, With More Transcriptions On It:
http://tiger.towson.edu/~dalvis1




Ваше мнение



Капча