Tune down 1 1/2 steps to Db
Intro - screaming
Riff A
|----------------------------------------------|
|----------------------------------------------|
|----------------------------------------------|
|---8---7--10---9---7/8-----8---7--10---9---8--| X6
|---6---5---8---7---5/6-----6---5---8---7---6--|
|00--00--00--00--00------00--00--00--00--00----|
.. .. .. .. .. .. .. .. .. ..
Riff B
|------------------------------|
|------------------------------|
|------------------------------|
|7-5/8-107-7------------------| X2
|5-3/6--85-5--3-2-2-2-3-2-2-2-|
|--------------1-0-0-0-1-0-0-0-|
. . . . . .
Repeat Riff B 2 times palm muted
Riff C (play fast!)
|------------------------------------------------------------------|
|------------------------------------------------------------------|
|------------------------------------------------------------------|
|------------------------------------------------------------------| X5
|------------------------------------------------------------------|
|0-0-0-0-10-0-0-0-0-0-0-11-10-9-10-0-0-0-0-10-0-0-0-0-0-0-10-11-13-|

Repeat Riff A 6 times
Repeat Riff B 4 times (2 times palm muted)
ending of Riff B here:
|-------------------|
|-------------------|
|-------------------|
|-------------------|
|3-2-2-2-3-2-2-2-2~-|
|1-0-0-0-1-0-0-0-0~-|
. . . . . .
Riff D
|----------------------------------------------------|
|----------------------------------------------------|
|----------------------------------------------------|
|----------------------------------------------------| X8
|2-2-2-5/7-87---5---7---8--2-2-2-5/7-87---5-8-7-5--|
|0-0-0-3/5-65-0-3-0-5-0-6--0-0-0-3/5-65-0-3-6-5-3--|
. . . . . . . . . . .
Repeat Riff C 3 times




Ваше мнение



Капча