Duran Duran - View to a kill
intro (2x)
G|---------------------------------------------------|
D|---------------------------------------------------|
A|-(3)--6-5-3---(2)------2---(1)------1------------1-|
E|-------------------3-3----------3-3-----(1)--3-r---|
***
chorus
G|------------|
D|------------|
A|-3--3---3-3-|
E|------------|
after: feel the chill...
G|-----------------|------------------|
D|-----------------|------------------|
A|-3--6-5-3--2----2|-3--6-5-3--2----2-|
E|--------------3--|--------------3---|
into bridge (nightfall covers me...)
play intro (twice) except the second time the last note:
bridge
G|---------------------------|--(6)---(6)-|---/6-/6-/6-|
D|--------------43-----------|------------|-------------|
A|----------6--6--6-2--0-2-x-|-4---2-4----|-4-----------|
E|-4--4-4-r------------------|------------|-------------|
verse (until we dance...) end 1st + 2nd time
G|---------------------4--5---------------|---------|
D|--(2)----4--5---------------------------|---------|
A|--------------------2--3--4--4-4---4-6--|-6-6----6|
E|-0---0--2--3--4---4---------------------|---------|
the third time (you can play the first bit in both ways)
G|-----------------------------------------|-------------|
D|--(2)----4--5--------9--10---------------|-------------|
A|-----------------------------------------|-------------|
E|-0---0--2--3--4---4-7--8--9--9-9---9-11--|-11-11--r-11|
***
the last time (4th time) end on
G|--------------------------------------------|
D|--------------------------------------------|
A|-6--9--6---------6--9--5------------------1-|
E|-----------4---------------3----------1-3---|
play part between *** again
verse end on (4th time)
G|---------------------|
D|---------------------|
A|-6---6--6h9p6-4------|
E|---------------7/4-0-|
outro play 3 times:
G|-----------------------|
D|-----4--5--------------|
A|-----------------------|
E|-0--2--3--4---4-4--4-0-|
end on
G|---------------------------|
D|-----4--5---------6--------|
A|----------------4---4------|
E|-0--2--3--4---4-------4----|
tabbed by dION ([email protected])




Ваше мнение



Капча