Artist: Duran Duran
Song Title: Tiger Tiger
Album: Seven And The Ragged Tiger (1983)
Song Duration: 03:20 min
Tabbed by: Vuk Krajacic ([email protected])
Instructions:
( ) - Song time elapsed
- Slide down
Into main riff (00:56)
G|--------------------------------------------------------------|
D|--------------------------------------------------------------|
A|---------------05-5--5--5--5-55--------------------------|
E|--3333-3--33--------------------------------------------------|
Main riff (01:18)
G|--------------------------------------|
D|--------------------------------------|
A|-------------------5-5--5--5-5--5-----|
E|--3333-3--3-3--3----------------------|
G|---------------------------------------|
D|---------------------------------------|
A|-------------------5-5--5--5--5--------|
E|--3333-3--3-3--3-----------------------|
G|---------------------------------------|
D|---------------------------------------|
A|-------------------5-5--5--5-5--1------|
E|--3333-3--3-3--3-----------------------|
G|-------------------------------------|
D|-------------------------------------|
A|-------------------5-5--5--5---5-----|
E|--3333-3--3-3--3---------------------|
Stop playing at (01:40)
Main riff (01:50)
G|-------------------------------------------|
D|-------------------------------------------|
A|--1--0--------------------5-5--5--5-5--1---|
E|---------3333-3--3-3--3--------------------|
G|---------------------------------------|
D|---------------------------------------|
A|-------------------5-5--5--5--5--------|
E|--3333-3--3-3--3-----------------------|
G|-----------------------------------|
D|-----------------------------------|
A|------------1--0---5-5--5--5--5----|
E|--3333-3--3------------------------|
G|--------------------------------------|
D|--------------------------------------|
A|-------------------5-5--5--5-5--5-----|
E|--3333-3--3-3--3----------------------|
G|--------------------------------------|
D|--------------------------------------|
A|-------------------5-5--5--5-5--5-----|
E|--3333-3--3-3--3----------------------|
G|--------------------------------------|
D|--------------------------------------|
A|-------------------5-5--5--5-5--5-----|
E|--3333-3--3-3--3----------------------|
G|--------------------------------------|
D|--------------------------------------|
A|-------------------5-5--5--5-5--5-----|
E|--3333-3--3-3--3----------------------|
Stop playing at (02:30)
Mid section (02:40)
G|--------------------------------------|
D|--------------------------------------|
A|--1--0-----------1--0--5--------------|
E|--------3-----------------------------|
Outro (02:48)
G|----------------------------------------------|
D|----------------------------------------------|
A|--1--0--5---------1--0------------1--0--5-----|
E|------------------------3---------------------|
Start to fade out, play very quietly:
G|--------------------------------------------------|
D|--------------------------------------------------|
A|------1--0--5---------1--0------------1--0--5-----|
E|--3-------------------------3---------------------|
G|----------------------------------------------------|
D|----------------------3--2--------------------------|
A|------1--0--5---------------------------------------|
E|--3-------------------------------------------------|
Stop playing at (03:15). That is all.
Please send your comments to [email protected]




Ваше мнение



Капча