Song: Planet Earth
Artist: Duran Duran
Intro:
D
G:-------------------------------------------------------------
D:-------------------------------------------------------------
A:-5-55--5-55--5-55--5-55--5-55--5-55--5-55--5-5---------------
E:-------------------------------------------------------------
F G
G:-------------------------------------------------------------
D:-3-33--3-33--3-33--3-33--3-33--3-33--3-33--3-/5--------------
A:-------------------------------------------------------------
E:-------------------------------------------------------------
D
G:-------------------------------------------------------------
D:-------------------------------------------------------------
A:-5-55--5-55--5-55--5-55--5-55--5-55--5-55--5-5---------------
E:-------------------------------------------------------------
F G A
G:-------------------------------------------------------------
D:-3-33--3-33--3-33--3-33--3-33--3-3------5------7-------------
A:-------------------------------------------------------------
E:-------------------------------------3------5----------------
Verse:
D
G:-------------------------------------------------------------
D:-------------------------------------------------------------
A:-5-55--5-55--5-55--5-55--5-55--5-55--5-55--5-5---------------
E:-------------------------------------------------------------
F C
G:-------------------------------------------------------------
D:-3-33--3-33--3-33--3-3---------------------------------------
A:--------------------------3-33--3-33--3-33--3-3--------------
E:-------------------------------------------------------------
D
G:-------------------------------------------------------------
D:-------------------------------------------------------------
A:-5-55--5-55--5-55--5-55--5-55--5-55--5-55--5-5---------------
E:-------------------------------------------------------------
F C
G:------------------------------------------5----6-------------
D:-3-33--3-33--3-33--3-3---------------------------------------
A:--------------------------3-33--3-33---3----4----------------
E:-------------------------------------------------------------
-repeat above sequence 2 more times
Chorus:
E G A C
G:-------------------------------------------------------------
D:---------------------5---6-----------------------------------
A:-----------------------------0--0---3--3----------------------
E:-0--0--0--0-2-3--3--3--4-------------------------------------
-repeat as necessary and return to verse-

Breakdown:
D
G:-------------------------------------------------------------
D:-------------------------------------------------------------
A:-5-----------------------------------------------------------
E:-------------------------------------------------------------

Last time:

D G D G G
G:----------------| ----------------12-12-12-12-12-12-12-----
D:----------------| ------------------------------------------
A:-5-----2-3------| -5----2-3---------------------------------
E:------------3/--| ----------3/------------------------------
-repeat verse and chorus-

Transcribed by Christopher Funicelli
Comments or suggestions, please email me at [email protected]
or visit ethanbrand.com




Ваше мнение



Капча