Artist: Duran Duran
Song Title: Night Boat
Album: Duran Duran (1981)
Song Duration: 05:25 min
Tabbed by: Vuk Krajacic ([email protected])
Instructions:
( ) - Song time elapsed
S - Slap
- Slide down
/ - Slide up
h - Hammer on
Intro (01:23)
G|---------------------------------|
D|---------------------------3-----|
A|----------------------2------2---|
E|--0------------------------------|

S
G|----------------------8----------|
D|---------------------------------|
A|---------------------------------|
E|--0------------------------------|
G|---------------------------------|
D|---------------------------3-----|
A|----------------------2------2---|
E|--0------------------------------|
G|---------------------------------|
D|---------------------------3-----|
A|----------------------2------2---|
E|--0------------------------------|
Riff I (01:38)
G|--------------------------|
D|---------------------3----|
A|--------------3--2-2------|
E|--0----2-3-0--------------|
Riff end (02:05)
G|--------------------------|
D|--------------------------|
A|--------------3--2-2-5----|
E|--0----2-3-0--------------|
G|---------------------------------------------|
D|---------------------------------------------|
A|---------------------------------------------|
E|--00-0-0--0-00-0-0--0-00-0-0--0-00-0-0--3/---|
Verse (02:16)
G|------------------------2-----------------------------|
D|--------------------0h4-----------------------0h4-6---|
A|--------------3--2----------------------3--2----------|
E|--0----2-3-0----------------0----2-3-0----------------|
G|------------------------2-----------------------------|
D|--------------------0h4-----------------------0h4-6---|
A|--------------3--2----------------------3--2----------|
E|--0----2-3-0----------------0----2-3-0----------------|
G|---------------------------------------------2-----------------------------|
D|-----------------------------------------0h4-----------------------0h4-6---|
A|-----------------------------------3--2----------------------3--2----------|
E|--0--------------------0----2-3-0----------------0----2-3-0----------------|
G|-----------------------------------|
D|-----------------------------------|
A|-----------------------------------|
E|--0-0-0-0-0-0-0-0-0-0-0-0-0-0-0-0--|
Chorus (02:46)
G|--------------------------------------------------333----|
D|---------------------------------------------------------|
A|--------------3-3--3/1-1-1---------------3-3--3/1--------|
E|--00-0--00-0-----------------00-0--00-0------------------|
G|-----------------------------------------------------333--|
D|------------------------3--3------------------------------|
A|--------------3-3--3/1--------------------3-3--3/1--------|
E|--00-0--00-0------------------00-0--00-0------------------|
Stop playing at (03:01)
Verse (03:16)
G|------------------------2-------------------------------|
D|--------------------0h4---------------------------------|
A|--------------3--2----------------------2-2-2-2---------|
E|--0----2-3-0----------------0----2-3-0----------3-3-3---|
G|------------------------2----------------------------------|
D|--------------------0h4------------------------------------|
A|--------------3--2-----------------------------------------|
E|--0----2-3-0----------------0-0-0-0-0-0-0-0-0-0-0-0-0-0-0--|
Chorus (03:31)
G|--------------------------------------------------333----|
D|---------------------------------------------------------|
A|--------------3-3--3/1-1-1---------------3-3--3/1--------|
E|--00-0--00-0-----------------00-0--00-0------------------|
G|----------------------------------------------------------|
D|------------------------3--3-------------------------333--|
A|--------------3-3--3/1--------------------3-3--3/1--------|
E|--00-0--00-0------------------00-0--00-0------------------|
Mid section (03:46)
G|----------------------------|
D|--2---5--22--7--22--5--0-1--|
A|----------------------------|
E|----------------------------|
G|----------------------------|
D|--2---5--22--7--22--5--0-1--|
A|----------------------------|
E|----------------------------|
G|----------------------------|
D|--2---5--22--7--22--5--0-1--|
A|----------------------------|
E|----------------------------|
G|-----------------------------|
D|--2---5--22--7--22--5--0-1-2-|
A|-----------------------------|
E|-----------------------------|
G|---------------------------------------6---7---8--|
D|--------------------------------------------------|
A|-------------------------------------4---5---6----|
E|--0---------------333/0---------------------------|
G|-----------------------------|
D|-----5--22--7--22--5--0-1----|
A|-----------------------------|
E|--0--------------------------|
G|------------------------------|
D|--2-2--5--22--7--22--5--0-1-2-|
A|------------------------------|
E|------------------------------|
Break (04:17)
G|------------------------------|
D|------------------------------|
A|----------------------2--2----|
E|--0--0---------3--3-----------|
G|--------------------------------|
D|--------------------------------|
A|---------67--34---------2-2-2--|
E|--0--0-------------3--3---------|
G|------------------------------|
D|------------------------------|
A|----------------------2-2--2--|
E|--0--0--0-0--0-3-3--3---------|
G|------------------------------|
D|------------------------------|
A|------------------------------|
E|--0--0--0-0--0-3-3--3---------|
Chorus (04:32)
G|---------------------------------------------------333----|
D|----------------------------------------------------------|
A|--------------3-3--3/1-111----------------3-3--3/1--------|
E|--00-0--00-0------------------00-0--00-0------------------|
G|-----------------------------------------------------333--|
D|------------------------3--3------------------------------|
A|--------------3-3--3/1--------------------3-3--3/1--------|
E|--00-0--00-0------------------00-0--00-0------------------|
Outro (04:47)
G|---------------------------------------------|
D|---------------------------------------------|
A|---------------------------------------------|
E|--0------------------0-----------------0-----|
G|---------------------------------------------|
D|---------------------------------------------|
A|---------------------------------------------|
E|--0------------------0-----------------0----|
Stop playing at (05:11)
End.

Please send your comments to [email protected]




Ваше мнение



Капча