Song: New Moon on Monday
Artist: Duran Duran
h - hammer on
Verse I:
C A C A
G:-------------------------------------------------------------
D:-------------------------------------------------------------
A:-3-3---3------------3-3---3----------------------------------
E:----------5-5---5------------5-5---5-------------------------
C A G E
G:--------5----------------------------------------------------
D:-------------------------------------------------------------
A:-3-3-0h3------------0h2-3-5-7----7---5h7-5-------------------
E:----------5-5-0h5--3----------0----0-------------------------
C A C A
G:--------5------------------5---------------------------------
D:------------------7-----------------7-7----------------------
A:-3-3-0h3------------3-3-0h3----------------------------------
E:----------5-5-0h5------------5-5-0h5-------------------------
C A G E
G:--------5----------------------------------------------------
D:-----------------7-------------------------------------------
A:-3-3-0h3------------0h2-3-5-7----7---5h7-5-------------------
E:----------5-5-0h5--3----------0----0-------------------------
C A C A
G:--------5------------------5---------------------------------
D:------------------7-----------------7-7----------------------
A:-3-3-0h3------------3-3-0h3----------------------------------
E:----------5-5-0h5------------5-5-0h5-------------------------

C A G E
G:--------5----------------------------------------------------
D:----------------------------------------3--4-----------------
A:-3-3-0h3-----------------------------------------------------
E:----------5-5-0h5--3-33-3333--0-00-00-1--2-------------------

Chorus:
G A E C
G:-----------------------7-8-----------------------------------
D:----------5-6------------------------------------------------
A:----------------------5-6---7-77-77-7-77-77-3-33-33----------
E:-3-33-33-3-4---5-55-55------------------------------0011-----

G A E C
G:-----------------------7-8-----------------------------------
D:----------5-6------------------------------------------------
A:----------------------5-6---7-77-77-7-77-77-3-33-33-3-33-33--
E:-3-33-33-3-4---5-55-55---------------------------------------
G A E C
G:-----------------------7-8-----------------------------------
D:----------5-6------------------------------------------------
A:----------------------5-6---7-77-77-7-77-77-3-33-33----------
E:-3-33-33-3-4---5-55-55------------------------------0011-----
G A E C
G:-----------------------7-8-----------------------------------
D:----------5-6------------------------------------------------
A:----------------------5-6---7-77-77-7-77-77-3-33-33-3-33-33--
E:-3-33-33-3-4---5-55-55---------------------------------------
C G C C
G:-------------------------------------------------------------
D:-------------------------------------------------------------
A:-3-------------------------3---3---3--3-3--3--3--------------
E:--------------3---------------------------------00-1-2-------
Verse II:
C A C A
G:-------------------------------------------------------------
D:-------------------------------------------------------------
A:-3-3---3------------3-3---3----------------------------------
E:----------5-5---5------------5-5---5-------------------------
C A G E
G:--------5----------------------------------------------------
D:-------------------------------------------------------------
A:-3-3-0h3------------0h2-3-5-7----7---5h7-5-------------------
E:----------5-5-0h5--3----------0----0-------------------------
C A C A
G:--------5------------------5---------------------------------
D:------------------7-----------------7-7----------------------
A:-3-3-0h3------------3-3-0h3----------------------------------
E:----------5-5-0h5------------5-5-0h5-------------------------
C A G E
G:--------5----------------------------------------------------
D:----------------------------------------3--4-----------------
A:-3-3-0h3-----------------------------------------------------
E:----------5-5-0h5--3-33-3333--0-00-00-1--2-------------------
-repeat chorus-
Mid section:
C G C C
G:-------------------------------------------------------------
D:-------------------------------------------------------------
A:-3--------------3----3---3---3-------------------------------
E:--------3-----------------------00-1-2-----------------------
C Bb C C
G:---5---5--3---3---5----5---5---5-----------------------------
D:-------------------------------------------------------------
A:-3---3--1---1---3----3---3---3-------------------------------
E:-------------------------------------------------------------
C Bb C C
G:---5---5--3---3----------------------------------------------
D:-------------------------------------------------------------
A:-3---3--1---1---3-3-3-3--3-3-3-3-----------------------------
E:-------------------------------------------------------------
-repeat chorus-
Transcribed by Christopher Funicelli
Comments or suggestions, please email me at [email protected]
or visit ethanbrand.com




Ваше мнение



Капча