Song: Hungry like the Wolf
Artist: Duran Duran
r = rest
h = hammer-on
/ = slide up
Intro:
E
G:-------------------------------------------------------------
D:-------------------------------------------------------------
A:-5h7-r-7-r-7-r-7-----5h7-r-7-r-7-r--7------------------------
E:----------------0-5------------------5-----------------------
Verse:
Dark in the city...
E
G:--------------------------------------9--8-------------------
D:-------------------------------------------------------------
A:-5h7-r-7-r-7-r--7----5h7-r-7-r-7--0/7--6---------------------
E:-----------------5-------------------------------------------
D E
G:-------------------------------------------------------------
D:-------------------------------------------------------------
A:r---5---5---5---5-45-----------------------------------------
E:-----------------5----00--0-00---00--0-00--------------------
When you want me...
E
G:--------------------------------------9--8-------------------
D:-------------------------------------------------------------
A:-5h7-r-7-r-7-r--7----5h7--77-r-7--0/7--6---------------------
E:-----------------5-------------------------------------------
D E
G:---------------------------------------9--7------------------
D:-------------------------------------------------------------
A:r---5---5---5---5-45--77--7-77--77-0-7--5--------------------
E:-----------------5-------------------------------------------
Chorus:
In touch with the ground...
C G F Bb
G:-------------------------------------------------------------
D:-------------------------------------------------------------
A:-33--3-33-----------------------------0-1-1-1-1-1-1-1-2------
E:-----------0h3-3--0h3-3--0h1-1--0h1-1------------------------
C G F D
G:-------------------------------------------------------------
D:-------------------------------------------------------------
A:-33--3-33-----------------------------5-5-5-5-5-5-5-4--------
E:-----------0h3-3--0h3-3--0h1-1--0h1-1------------------------

C G F Bb
G:-------------------------------------------------------------
D:-------------------------------------------------------------
A:-33--3-33-----------------------------0-1-1-1-1-1-1-1-2------
E:-----------0h3-3--0h3-3--0h1-1--0h1-1------------------------
C G F D
G:-------------------------------------------------------------
D:-------------------------------------------------------------
A:-33--3-33-----------------------------5-5-5-5-5-5-5-4--------
E:-----------0h3-3--0h3-3--0h1-1--0h1-1------------------------
Verse:
Stalk through the forest...
E
G:--------------------------------------9--8-------------------
D:-------------------------------------------------------------
A:-5h7-r-7-r-7-r--7----5h7-r-7-r-7--0/7--6---------------------
E:-----------------5-------------------------------------------
D E
G:-------------------------------------------------------------
D:-------------------------------------------------------------
A:r---5---5---5---5-45------------77--7--77--------------------
E:-----------------5----00--0-00-------------------------------

E
G:--------------------------------------9--8-------------------
D:-------------------------------------------------------------
A:-5h7-r-7-r-7-r--7----5h7-r-7-r-7--0/7--6---------------------
E:-----------------5-------------------------------------------
D E
G:---------------------------------------9--7------------------
D:-------------------------------------------------------------
A:r---5---5---5---5-45--77--7-77--77-0-7--5--------------------
E:-----------------5-------------------------------------------
Chorus:
In touch with the ground...
C G F Bb
G:-------------------------------------------------------------
D:---------------5------5------3------3------------------------
A:-33--3-33-----------------------------0-1-1-1-1-1-1-1-2------
E:-----------0h3----0h3----0h1----0h1--------------------------
C G F D
G:-------------------------------------------------------------
D:---------------5------5------3------3------------------------
A:-33--3-33-----------------------------5-5-5-5-5-5-5-4--------
E:-----------0h3----0h3----0h1----0h1--------------------------

C G F Bb
G:-------------------------------------------------------------
D:---------------5------5-------3-----3------------------------
A:-33--3-33-----------------------------0-1-1-1-1-1-1-1-2------
E:-----------0h3----0h3----0h1----0h1--------------------------
C G F D
G:-------------------------------------------------------------
D:---------------5------5------3------3------------------------
A:-33--3-33-----------------------------5-5-5-5-5-5-5-5--------
E:-----------0h3----0h3----0h1----0h1--------------------------
Mid-section:
E D E G
G:-------------------------------------------------------------
D:-----------------------------r-5-----------------------------
A:-r-7-r-7-r-7-r-5-r-7-r-7-r-7---------------------------------
E:-------------------------------------------------------------
E E E D E E G E
G:---------------------------------------------------------7-6-
D:-----------------------------------------------5-------------
A:-------------------------5-r-77--7-77--r-77-7-7--r-77-0/5-4--
E:-r-00--0--00---r-00--0--0------------------------------------

Chorus:
C G F Bb
G:-------------------------------------------------------------
D:---------------5------5------3------3------------------------
A:-33--3-33-----------------------------0-1-1-1-1-1-1-1-2------
E:-----------0h3----0h3----0h1----0h1--------------------------
C G F D
G:-------------------------------------------------------------
D:---------------5------5------3------3------------------------
A:-33--3-33-----------------------------5-5-5-5-5-5-5-4--------
E:-----------0h3----0h3----0h1----0h1--------------------------

C G F Bb
G:-------------------------------------------------------------
D:-------------------------------------------------------------
A:3-3-3-3-3-3-3-2------------------------------01-1-1-1-1-1-1-1
E:----------------3-3-3-3-3-3-3-0-1-1-1-1-1-1-1----------------
C G F D
G:-------------------------------------------------------------
D:-------------------------------------------------------------
A:3-3-3-3-3-3-3-2-------------------------------5-5-5-5-5-5-5-5
E:----------------3-3-3-3-3-3-3-0-1-1-1-1-1-1-1----------------
Transcribed by Christopher Funicelli
Comments or suggestions, please email me at [email protected]
or visit ethanbrand.com




Ваше мнение



Капча