Artist: Duran Duran
Song Title: Friends Of Mine
Album: Duran Duran (1981)
Song Duration: 05:39 min
Tabbed by: Vuk Krajacic ([email protected])
Instructions:
( ) - Song time elapsed
S - Slap
- Slide down
/ - Slide up

Main riff (00:37)
S
G|------------------------67----|
D|-------------------------------|
A|------------------02-2---------|
E|--0--0-00---3--3---------------|
Riff end (00:49)
G|------------------------2-2----|
D|-------------------------------|
A|--0--00------------------------|
E|-------------------------------|
Main riff (00:52)
S
G|------------------------67----|
D|-------------------------------|
A|------------------02-2---------|
E|--0--0-00---3--3---------------|
Riff end (01:04)
G|--------------------------2-2----|
D|---------------------------------|
A|--0--0-00------------------------|
E|---------------------------------|
Break (01:08)
S S
G|---------------------------------------------6-7----|
D|----------------------------------------------------|
A|----------------------------------------------------|
E|--0--0--0--0--0--0--0--0--0--0--0--0--0--0----------|
Main riff (01:16)
S
G|---------------------67----|
D|----------------------------|
A|---------------02-2---------|
E|--0-00---3--3---------------|

Riff end (01:27)

G|---------------------------------|
D|---------------------------------|
A|--0--0-00------------------------|
E|---------------------------------|

Chorus (01:31)
G|-----------------------------------|
D|-----------------------------------|
A|------------2-----3--3--33---------|
E|--3--3--333---3------------0-1-2---|
G|-----------------------------------|
D|-----------------------------------|
A|------------2-----3--3--33-----3/--|
E|--3--3--333---3------------0-1-----|
G|-----------------------------------|
D|---------------------------4-0-----|
A|--0--0--000-4-0---5--5--55-----3---|
E|-----------------------------------|
G|-----------------------------------|
D|-----------------------------------|
A|--0--0--000-4-0---5--5--55---------|
E|----------------------------0-1-2--|
G|-----------------------------------|
D|-----------------------------------|
A|------------2-----3--3--33---------|
E|--3--3--333---3------------0-1-2---|
G|-----------------------------------|
D|-----------------------------------|
A|------------2-----3--3--33-----3/--|
E|--3--3--333---3------------0-1-----|
G|-----------------------------------|
D|---------------------------4-0-----|
A|--0--0--000-4-0---5--5--55-----3---|
E|-----------------------------------|
G|-----------------------------------|
D|---------------------------4-0-----|
A|--0--0--000-4-0---5--5--55-----3---|
E|-----------------------------------|
Main riff (02:02)
S
G|------------------------67----|
D|-------------------------------|
A|------------------02-2---------|
E|--0--0-00---3--3---------------|
Riff end (02:21)
G|--------------------------2-2----|
D|---------------------------------|
A|--0--0-00------------------------|
E|---------------------------------|

Break (02:25)
S S
G|---------------------------------------------6-7----|
D|----------------------------------------------------|
A|----------------------------------------------------|
E|--0--0--0--0--0--0--0--0--0--0--0--0--0--0----------|
Main riff (02:33)
S
G|---------------------67----|
D|----------------------------|
A|---------------02-2---------|
E|--0-00---3--3---------------|
Riff end (02:44)
G|---------------------------------|
D|---------------------------------|
A|--0--0-00------------------------|
E|---------------------------------|
Chorus (02:48)
G|-----------------------------------|
D|-----------------------------------|
A|------------2-----3--3--33---------|
E|--3--3--333---3------------0-1-2---|
G|--------------------3-------------|
D|-----3----------------------------|
A|-----------2-----3-----33-----3/--|
E|--3-----33---3------------0-1-----|
G|---------------------5-------------|
D|---------------------------4-0-----|
A|--0--0--000-4-0---5-----55-----3---|
E|-----------------------------------|
G|-----------------------------------|
D|-----------------------------------|
A|--0--0--000-4-0---5--5--55---------|
E|----------------------------0-1-2--|
G|-----------------------------------|
D|-----3-----------------------------|
A|------------2-----3--3--33---------|
E|--3-----333---3------------0-1-2---|
G|-----------------------------------|
D|-----3-----------------------------|
A|------------2-----3--3--33-----3/--|
E|--3-----333---3------------0-1-----|
G|---------------------5-------------|
D|---------------------------4-0-----|
A|--0--0--000-4-0---5-----55-----3---|
E|-----------------------------------|
G|-----------------------------------|
D|---------------------------4-0-----|
A|--0--0--000-4-0---5--5--55-----3---|
E|-----------------------------------|
Mid section (03:19)
G|-----------------------------------|
D|-----------------------------------|
A|-------337-------3--3--0--0----|
E|--0--------------------------------|
G|----------------------------2-2----|
D|-----------------------------------|
A|-------337-------3--3----------|
E|--0--------------------------------|
Mid section end (03:42)
G|-----------------------------------|
D|-----------------------------------|
A|-------337-------3--3--0--0----|
E|--0--------------------------------|
G|-----------------------------------|
D|-----------------------------------|
A|--7-7-7-7-7-7-7-7-7-7-7-7-7-7-7-7--|
E|-----------------------------------|
Main riff (03:50)
G|-----------------------------|
D|-----------------------------|
A|-------------------02--2-----|
E|--0-0-00-0---3--3------------|
Riff end (04:09)
S S
G|-------------------------6-7/----|
D|---------------------------------|
A|--0--0-00------------------------|
E|---------------------------------|
Break (04:13)

G|-------------------------------------------------6------|
D|--------------------------------------------------------|
A|---------------------------------------7-7-7-7-4---5----|
E|--0--0--0--0--0--0--0--0--0--0--0--0--------------------|
Main riff (04:21)
G|-----------------------------|
D|-----------------------------|
A|-------------------02-2-2----|
E|--0-0-00-0---3--3------------|
Riff end (04:33)
G|-------------------------------|
D|-----------------------4-------|
A|--0--0--00-0--0--0---0---------|
E|-------------------------------|
Chorus (04:37)
G|-----------------------------------|
D|-----------------------------------|
A|------------2-----3--3--33---------|
E|--3--3--333---3------------0-1-2---|
G|--------------------3-------------|
D|-----3----------------------------|
A|-----------2-----3-----33-----3/--|
E|--3-----33---3------------0-1-----|
G|-----2---------------5-------------|
D|---------------------------4-0-----|
A|--0-----000-4-0---5-----55-----3---|
E|-----------------------------------|
G|-----2---------------5-------------|
D|---------------------------4-0-----|
A|--0-----000-4-0---5-----55-----3---|
E|-----------------------------------|
G|---------------------3-------------|
D|-----3---------------------4-0-----|
A|------------2-----3-----33-----3---|
E|--3-----333---3--------------------|
G|---------------------3-------------|
D|-----3-----------------------------|
A|------------2-----3-----33-----3/--|
E|--3-----333---3------------0-1-----|
G|-----2---------------5-------------|
D|---------------------------4-0-----|
A|--0-----000-4-0---5-----55-----3---|
E|-----------------------------------|
G|-----2---------------5-------------|
D|-------------------------4-3-2-----|
A|--0-----000-4-0---5----------------|
E|-----------------------------------|
Into outro (05:07)
G|-----------------------------------|
D|---------------------------0--0----|
A|------------2-----3-3-3---3--------|
E|--3--3--333---3--------------------|
G|-----------------------------------|
D|-----------------------------------|
A|------------2-----3-3-3-------3----|
E|--3--3--333---3-----------0-1------|
G|-----------------------------------|
D|-----------4-0--------------7-0----|
A|--0-0-0---0----3---5-5-5---5----3--|
E|-----------------------------------|
G|-----------------------------------|
D|-----------4-0---------------------|
A|--0-0-0---0----3---5-5-5---5-------|
E|-----------------------------0-1-2-|
Outro (05:23)
G|---------------------------------------|
D|---------------------------------------|
A|--------------2-----3-3-3-3-3----------|
E|--3-3-3-3-3-3---3--------------0-13--|
G|---------------------------------------|
D|---------------------------------------|
A|--------------2-----3-3-3-3-3----------|
E|--3-3-3-3-3-3---3--------------0-13--|
Starts to fade out, thus play quietly:
G|--------------------------------------|
D|--------------------------------------|
A|--0-0-0-0-0-0--4-0--5-5-5-5-3-3-2-2---|
E|--------------------------------------|
G|-----------------------------|
D|-----------------------------|
A|--0-0-0-0-0-0--4-0--5-5-5-5--|
E|-----------------------------|
End.
Please send your comments to [email protected]




Ваше мнение



Капча