Duran Duran
A View to a Kill
Tabbed by Mark Harclerode
email corrections to [email protected]
This song seems like it is slightly out of tune and has some weird key modulations,
parts of this may not be perfectly right pitch wise, but it is close
I think this recording must have been sped up slightly, also the main verse riff seems
to have some lower bass overdubbed from a synth possibly.
Anyways I feel this is very close
Intro
A--3-------5-----6------1--1--1-0 1-0
E----3333---3333---3333--------------
Meeting you with a view...
A--3-3--33-33-| 4X
E-------------|
Followed by intro riff
A chance to find
H.O.
D----------|-----5-4-545-|--------|-----------
A----------|6--6---------|-2--2-2-|6--6-6-6--
E-4-4-2-4-6|-------------|--------|------------
Until we dance...
G-------------------|--------4---5-|---------|----------
D-----------2-----4-|--------------|---------|----------
A-7--7--------------|-----2----3---|-4--4-4--|-6---6-6-
E--------0-----2----|4--4----------|---------|---------
A--4-6-4--|-4-6-4----|1-2-3|Back to verse parts
E--------4|-------4-3|-----|
Outro Chorus (Simplified Main Chorus)
G-------------------|--------------|
D-----------2-----4-|--------------|
A-7--7--------------|--------------|
E--------0-----2----|4--4-4--------|




Ваше мнение



Капча