Duncan Sheik - Longing Town - Guitar Tab by Joгo Faнsca

According to Duncan's official web site , this song is played with a Tenor Guitar, which has only
4 strings.
The tuning used is the following A E F C (From www.duncansheik.com).
However we can use it in a regular 6 string guitar in the 4 middle strings. The E's aren't used.
E
C
F
E
A
E
Where there's a "--00--" it doesn't mean to play that string two times.
It means that note lasts a bit more.
E|-----------------------------------------------------------------------
C|----------------------------0-----------0-----------0-----------0------
F|-------7------------------6---6-------6---9-------6---6-------9---9----
E|------7-----------------0-------0---0-------0---0-------0---0-------0--
A|-----7----------------0-----------0-----------0-----------0------------
E|-----------------------------------------------------------------------
Oh sooo… ...Cooold...
E|-------------------------------------------
C|----------0-----------0-----------0--------
F|------0-----0-----0-----0-----0-----0------
E|--------0-----0-----0-----0-----0-----0----
A|----0-----------3-----------5-----------5--
E|-------------------------------------------

E|-------------------------------------------------------
C|-----------0-----------0-----------0-----------0-------
F|---------6---6-------6---9-------6---6-------9---9-----
E|-------0-------0---0-------0---0-------0---0-------0---
A|-----0-----------0-----------0-----------0-------------
E|-------------------------------------------------------
Evening grey...
E|-------------------------------------------------------
C|----------0-----------0-----------0-----------0--------
F|------0-----0-----0-----0-----0-----0-----0-----0------
E|--------0-----0-----0-----0-----0-----0-----0-----0----
A|----0-----------3-----------5-----------5--------------
E|-------------------------------------------------------
No more...
E|-------------------------------------------------------
C|-----------0-----------0-----------0-----------0-------
F|---------6---6-------6---9-------6---6-------9---9-----
E|-------0-------0---0-------0---0-------0---0-------0---
A|-----0-----------0-----------0-----------0-------------
E|-------------------------------------------------------
Sounds won't...
E|-------------------------------------------------------
C|----------0-----------0-----------0-----------0--------
F|------0-----0-----0-----0-----0-----0-----0-----0------
E|--------0-----0-----0-----0-----0-----0-----0-----0----
A|----0-----------3-----------5-----------5--------------
E|-------------------------------------------------------
Only what...
E|-------------------------------------------------------------------------
C|-----------11------------11------------------12----------------11--------
F|-------9--------9----9--------9--------11----------11----11----------11--
E|---------8----8--------8----8-------------10----10----------10----10-----
A|----10------------10----------------11----------------11-----------------
E|-------------------------------------------------------------------------
Why is...
E|------------------------------------------------------------
C|----------0-------------2-------------5-----------5---------
F|--------4---4---------3---3---------4---4-------4---4-------
E|------0-------0-----4-------4-----5-------5---5-------5-----
A|----0-------------2-------------3-----------3-----------3---
E|------------------------------------------------------------
So cold...
E|----------------------------------------------------------------------------
C|-----------------------------0-----------0-------------5-----------5--------
F|---------------------------0---0-------0---0---------6---6-------6---6------
E|-------------------------0-------0---0-------0-----8-------8---8-------8----
A|-----------------------5-----------5-------------7-----------7-----------7--
E|----------------------------------------------------------------------------
Wind, tell her... ...lightly...
E|-------------------------------------------------------
C|--------0-----------0-------------5-----------5--------
F|------0---0-------0---0---------6---6-------6---6------
E|----0-------0---0-------0-----8-------8---8-------8----
A|--5-----------5-------------7-----------7-----------7--
E|-------------------------------------------------------
might be...
E|--------------------------------------
C|--------0-----------0-----------------
F|------0---0-------0---0---------------
E|----0-------0---0-------0-------------
A|--5-----------5-----------------------
E|--------------------------------------
nightly...
E|-------------------------------------------------------------------------
C|---------0-----------0--------------11-----------00----------------------
F|-------0---0-------0---0----------9----9------------0--------------------
E|-----1-------1---0-------0------8--------8-----8------0------------------
A|---1-----------0-------------10--------------8---------------------------
E|-------------------------------------------------------------------------
Watching...
E|-------------------------------------------------------------------------
C|---------0-----------0--------------11-----------00----------------------
F|-------0---0-------0---0----------9----9------------0--------------------
E|-----1-------1---0-------0------8--------8-----8------0------------------
A|---1-----------0-------------10--------------8---------------------------
E|-------------------------------------------------------------------------
Twilight... And...
E|------------------------------------------------------------------------
C|---------0-----------0--------------11-------------0-----------0--------
F|-------0---0-------0---0----------9----9---------0---0-------0---0------
E|-----1-------1---0-------0------8--------8-----0-------0---0-------0----
A|---1-----------0-------------10--------------5-----------5-----------5--
E|------------------------------------------------------------------------
...longing...
Goes back from the start.
The last notes...
E|---------------------
C|--------4-7----9-----
F|------7-------7------
E|----5--------5-------
A|---------------------
E|---------------------
It's the best i can.
Hope you enjoy it.
If you have any suggestion or comment, send it please to [email protected]




Ваше мнение



Капча