Artist: DumDums
Song: Can't Get You Out Of My Thoughts
Tabbed by: Dan Rowden
*** bass-tabs.co.uk - http://www.bass-tabs.co.uk ***
Don't forget to drop your 'E' string to an 'Eb'
Main Riff:
G|----------------------------------------------|
D|-------1----4----6----4---2---1---------------|
A|-2-------------------------------2----4-------|
E|-------------------------------------------3--|
Bridge:
G|-----------------------------------|
D|-----------------------------------|
A|---------------------------4----6--|
E|-5-5-5-5-4-4-0-0-1-1-1---5----5----|
G|-----------------------------------------------|
D|-----------------------------------------------|
A|-----------------------------------------------|
E|-5-5-5-5-4-4-0-0-1-1-1---5-3--5-3--5-3--5-3----|
Middle 8:
G|----------------------------------------------------------|
D|-2-------------1-------------2----------------------------|
A|--------4-------------2-------------4------7--4-----------|
E|-------------------------------------------------3--------|
Ending:
G|------------------------------------------|
D|-------1--4--6---4---2---2-----2-----2----|
A|-2-------------------------2-----2-----2--|
E|------------------------------------------|
G|------------------------------------------------------------|
D|------------------2-----2-1----2-1----2-1-------------------|
A|----------------------------2------2------2-----------------|
E|-5-5-5-5-6-6-6-6-----------------------------5-5-5-5--6-----|
Song Order:
Main Riff (x4)
Bridge
Main Riff (x5)
Bridge
Main Riff (x4)
Middle 8
Main Riff (x3)
Ending
Any comments or suggestions? [email protected]
Visit my website at http://www.bass-tabs.co.uk




Ваше мнение



Капча