this is 100% correct
Under The Sun
Drop Db is the same as drop C# tuned
low to high C#,G#,C#,F#,A#,D#
pm=palm mute
b=bend h=hameron
L=lift off
The song order is part 1,2,1,3,4,1,2,1,3,4,5,4,4,6
Eb|--------------------------------------------------------||
Bb|-----------------------------2times(both)---------------||
Gb|--------2times---------2times---------------------------||
Db|0-0-3----------3-3-3------------------------------------||
Ab|0-0---2b-------3-3---3b---------------------------------||
Db|0-0------------3-3--------------------------------------||
pm pm
part1
Eb|--------------------------------------------------------||
Bb|-----------------------1time----------------------------||
Gb|------2--2---------0--0---------------------------------||
Db|0--3-----3---0--3-----3---------------------------------||
Ab|---------3------------3---------------------------------||
Db|--------------------------------------------------------||
play clean with little or no distortion
part2
listen for strumming pattern on power chords
Eb|--------------------------------------------------------||
Bb|--------------------------------------------------------||
Gb|-------------1time--------------------------------------||
Db|8---5---8---5-------------------------------------------||
Ab|8---5---8---5-------------------------------------------||
Db|8---5---8---5-------------------------------------------||
pm first chord then cresendo to the end
part3
listen for strumming pattern on power chords guitar 1
Eb|--------------------------------------------------------||
Bb|-----------------2times---------------------------------||
Gb|--------5---3---2---------------------------------------||
Db|0---3---5---3---2---------------------------------------||
Ab|0---3---3---1---0---------------------------------------||
Db|0---3---------------------------------------------------||
part4
guitar 2
Eb|-------------------------2times-------------------------||
Bb|5---5---5-8---------------------------------------------||
Gb|--5---5-----7-------------------------------------------||
Db|---------------7----------------------------------------||
Ab|--------------------------------------------------------||
Db|--------------------------------------------------------||
play this the second time through with part 4
guitar 1
Eb|5---3---5h6L5--5-----3---3---3h5L3--3-------times2(both)||
Bb|--3---3----------------1---1----------------------------||
Gb|times2---------------times2-----------------------------||
Db|--------------------------------------------------------||
Ab|--------------------------------------------------------||
Db|--------------------------------------------------------||
part5
guitar 2
Eb|--------------------------------------------------------||
Bb|--------------------------------------------------------||
Gb|------------5-----3-------------------------------------||
Db|0-----3-----5-----3-----0-------------------------------||
Ab|0-----3-----3-----1-----0-------------------------------||
Db|0-----3-----------------0-------------------------------||
guitar2 with part 5, listen for timing
Eb|--------------------------------------------------------||
Bb|-----------------1time----------------------------------||
Gb|3-------3-----------------------------------------------||
Db|3---5---3---5---0---------------------------------------||
Ab|1---5---1---5---0---------------------------------------||
Db|----5-------5---0---------------------------------------||
part6,outro
Tabbed by John Bowdish of ImpurVisionsDotCom





Ваше мнение



Капча