#-----------------------------------------------------------------------------#
#-- File created with Instab - http://www.pconline.com/~smcarey/instab.html --#
#-----------------------------------------------------------------------------#
Author/Artist: Dry Cell
Title: Slip Away
Album: Disconnected
Transcribed by: Matt Collins
Email: [email protected]
Verse/Pre-chorus
-4-4-4-4-4-4-4-5--------------------------------------------------------------
-4-4-4-4-4-4-4-5--------------------------------------------------------------
-6-6-6-6-6-6-6-7--------------------------------------------------------------
-6-6-6-6-6-6-6-7--------------------------------------------------------------
-4-4-4-4-4-4-4-5--------------------------------------------------------------
-4-4-4-4-4-4-4-5--------------------------------------------------------------
Every time this chord is played a second guitar playes:
-5-- -9bend up--
-5-- -----------
-7-- -----------
-7-- -----------
-5-- -----------
-5-- -----------
Chorus
-2-2-3-3-5-5-2-2--------------------------------------------------------------
-2-2-3-3-5-5-2-2--------------------------------------------------------------
-4-4-3-3-7-7-2-2--------------------------------------------------------------
-4-4-5-5-7-7-4-4--------------------------------------------------------------
-2-2-5-5-5-5-4-4--------------------------------------------------------------
-2-2-3-3-5-5-2-2--------------------------------------------------------------

Bridge
-2---3--3---------------------------------------------------------------------
-2---3--3---------------------------------------------------------------------
-4-1-3--3---------------------------------------------------------------------
-4-2-5--3---------------------------------------------------------------------
-2-2-5--5---------------------------------------------------------------------
-2---3--5---------------------------------------------------------------------

Pretty Easy Song. Comments and Stuff e-mail me.





Ваше мнение



Капча