This Is 100% correct
Last Time
Drop Db=drop C#, im not too sure about the open string on the heavier
part. it sounds a little lower but thats proly the bass, so i wrote it
in C#
There are all the parts, they repeat here and there but u can figure
that out. email me at [email protected] if u have ne questions.
h=hameron
L=lift off
pm=palm mute
*=mute string
/=slide,b=bend
guitar1
Eb|--------------------------------------------------------||
Bb|--------------------------------------------------------||
Gb|-------------------------------times3-------------------||
Db|7-9h10L9--5-5--5-5-5h7L5--5-----------------------------||
Ab|7---------5-5--5-5----------7-7-------------------------||
Db|7---------5-5-------------------------------------------||
pm
guitar1
Eb|--------------------------------------------------------||
Bb|--------------------------------------------------------||
Gb|-------------times1-------------------------------------||
Db|7-9h10L9--5-5-------------------------------------------||
Ab|7---------5-5-------------------------------------------||
Db|7---------5-5-------------------------------------------||
guitar2-played with guitar1 part above, listen for timing, this part
is added to the riff later in the song at 54 seconds
Eb|--------------------------------------------------------||
Bb|--------------times4------------------------------------||
Gb|17-16---------------------------------------------------||
Db|------17-14-12------------------------------------------||
Ab|--------------------------------------------------------||
Db|--------------------------------------------------------||
guitar1
Eb|--------------------------------------------------------||
Bb|--------------------------------------------------------||
Gb|-----------------------times2---------------------------||
Db|7---3---5-----7---0---5---------------------------------||
Ab|7---3---5-----7---0---5---------------------------------||
Db|7---3---5-----7---0---5---------------------------------||
guitar2-played with guitar1 part above, listen for timing, this part
is added to the riff later in the song
Eb|--------------------------------------------------------||
Bb|-----------------------times2---------------------------||
Gb|12--14--16----12--7---9---------------------------------||
Db|-*---*---*-----*--*---*---------------------------------||
Ab|10--12--14----10--9---7---------------------------------||
Db|--------------------------------------------------------||
guitar1-1:38
Eb|--------------------------------------------------------||
Bb|----------------------------------times3----------------||
Gb|12-12--12-12--12-12--12-12--12--12----------------------||
Db|-*--*---*--*---*--*---*--*---*---*----------------------||
Ab|10-10--10-10--10-10--10-10--10--10----------------------||
Db|--------------------------------------------------------||
guitar1
Eb|--------------------------------------------------------||
Bb|---------------------------------times1-----------------||
Gb|12-12--12-12--9--9---9--9---9---9-----------------------||
Db|-*--*---*--*--*--*---*--*---*---*-----------------------||
Ab|10-10--10-10--7--7---7--7---7---7-----------------------||
Db|--------------------------------------------------------||
guitar2-play with guitar1 above,listen for timings
Eb|--------------------------------------------------------||
Bb|--------------------------------------------------------||
Gb|--------------------------------------------------------||
Db|3--3---3--3-etc.-----0--0---0--0-etc.-------------------||
Ab|3--3---3--3----------0--0---0--0------------------------||
Db|3--3---3--3----------0--0---0--0------------------------||
guitar1-these are just the octave chords, listen for carefully
to get the strumming pattern down.1:54 in song
Eb|-----------------------------------times2(both)---------||
Bb|------times2-----------------times1---------------------||
Gb|17--16---------17--16--14--12---------------------------||
Db|-*---*----------*---*---*---*---------------------------||
Ab|15--14---------15--14--12--10---------------------------||
Db|--------------------------------------------------------||
guitar2-play with guitar 1 above,listen for stumming/timing
Eb|--------------------------------------------------------||
Bb|--------------------------------------------------------||
Gb|-------times2-------------------------------------------||
Db|7--3--5---------7/1---7--3--5---------------------------||
Ab|7--3--5---------7/1---7--3--5---------------------------||
Db|7--3--5---------7/1---7--3--5---------------------------||
2:53
Eb|-------------------------------------||
Bb|-------------------------------------||
Gb|-------------------------------------||
Db|-------------------------------------||
Ab|3b---3b------------------------------||
Db|-------------------------------------||
Tabbed by John Bowdish of ImpurVisionsDotCom





Ваше мнение



Капча