This Is 100% correct
Disconnected
Dont pay attention to the standard tuning shown below, this is the
correct tuning rite here, drop A#(A#,F,A#,D#,G,C) i wrote it in
this because the song is very bass like and it didnt sound quite
rite in C#
b=bend
/=slide
/pm=palm mute
()=harmonic
E|--------------------------------------------------------||
B|--3-3-3b-3------3-3-3b-3--------------------------------||
G|--------------------------------------------------------||
D|0-----------2/3-----------------------------------------||
A|--------------------------------------------------------||
E|--------------------------------------------------------||
E|--------------------------------------------------------||
B|--3-3-3b-3------3-3-------------------------------------||
G|--------------------------------------------------------||
D|0-----------2/3-----------------------------------------||
A|--------------------------------------------------------||
E|--------------------------------------------------------||
E|--------------------------------------------------------||
B|--------------------------------------------------------||
G|----------------------------times3----------------------||
D|0-0-0--0---0-0-0--0---0-0--0----------------------------||
A|0-0-0--0---0-0-0--0---0-0--0----------------------------||
E|0-0-0-(3)--0-0-0-(3)--0-0-(3)---------------------------||
pm pm
E|--------------------------------------------------------||
B|--------------------------------------------------------||
G|--------------------------------------------------------||
D|0-0-0--0---0-0--0--------(5)----------------------------||
A|0-0-0--0---0-0--0---0/5--(5)----------------------------||
E|0-0-0-(3)--0-0-(3)--------------------------------------||
Jilted.....
E|------------------------times4--------------------------||
B|--3-3-3b-3------3-3-3b-3--------------------------------||
G|--------------------------------------------------------||
D|0-----------2/3-----------------------------------------||
A|--------------------------------------------------------||
E|--------------------------------------------------------||
heavy part first starts at 37 seconds, listen for strumming pattern
E|--------------------------------------------------------||
B|--------------------------------------------------------||
G|---------------------------------times2-----------------||
D|0-3-3-5-5-5b-5-3-0-3-3-5------(5)-----------------------||
A|0-3-3-5-5-5b-5-3-0-3-3-5-0/5--(5)-----------------------||
E|0-3-3-5-5-5b-5-3-0-3-3-5--------------------------------||
palm muted part first come in at 56 seconds, then at 1:36
it comes back and repeats four times
E|--------------------------------------------------------||
B|--------------------------------------------------------||
G|--------------------------------------------------------||
D|1-1-1--1--1-1-1--1--1-1--1------------------------------||
A|1-1-1--1--1-1-1--1--1-1--1------------------------------||
E|1-1-1--1--1-1-1--1--1-1--1------------------------------||
pm pm pm
at 1:46,listen for strumming pattern,itssimilar to the palm
muted pattern played
E|--------------------------------------------------------||
B|--------------------------------------------------------||
G|--------------------------------------------------------||
D|0-----1-----0-----3-------------------------------------||
A|0-----1-----0-----3-------------------------------------||
E|0-----1-----0-----3-------------------------------------||
at 2:26 the open strings are played then a rest is held before
going back into the heavy part
E|-------------------------------------||
B|-------------------------------------||
G|-------------------------------------||
D|0------------------------------------||
A|0------------------------------------||
E|0------------------------------------||
Tabbed by John Bowdish of ImpurVisionsDotCom





Ваше мнение



Капча