-##
Date: Sun, 10 Dec 1995 18:16:02 +0100 (MET)
From: Ellen de Bruijn
Subject: TAB: Superglider by Drugstore
(Lyrics included)
Drugstore: Superglider
INTRO
|| A E || Bm || A E || Bm ||
VERSE
|| A E || Bm || A E || Bm ||
There's a star for everyone, but some got lost in darkness...
|| A E || Bm || A E || Bm ||
CHORUS
|| F#m A || E || F#m A || E ||
Superglider....
|| F#m A || E ||
[distortion]
|| E7 E6 E || E7 E6 E ||
blablablabla....(?)
|| E7 E6 E ||
blablablabla....(?)

CHORD PROGRESSION:
==================
s = slide
--5-----------0-------7------------(7)- E
--5-----------0-------7------------(7)- B
--6-----------1-------7------------(7)- G
--7-----------2-------9-------------9-- D
--7-----------2-------9----7-s-9---(9)- A
--5-----------0-------7------------(7)- E
slide
A E Bm
----- ----- ----- E
--3-- --2-- ----- B
--1-- --1-- --1-- G
--2-- --2-- --2-- D
--2-- --2-- --2-- A
----- ----- ----- E
E7 E6 E
When you listen very carefully you can hear a lead guitar
playing on the background.... he plays something like this:
--------------------------------------- E
--------------------------------------- B
--4--4--4--4-s-2-----2--2----4-s-6--4-- G
--------------------------------------- D
--------------------------------------- A
--------------------------------------- E
(A) (E) (Bm)
Just use the higher A, Bm and F#m and slide all the way back
to the basic E.
And finally, here are the lyrics:
Superglider
===========
There's a star for everyone
But some got lost in darkness
When your pretty smile was gone
When I'm looking for a
Superglider, superglide, superglider
?Life all in my dream, lay your eyes




Ваше мнение



Капча