Sinner-Drowning Pool
Sinner
Transcribed By: Jephthah Rae
Email: [email protected]
Drop B:
B F# B E G# C#
Intro: w/ wah
e-----------------------------------------------------------------
b-----------------------------------------------------------------
g---------5/7-----5/8-8-8-8-8---------5/7-----5/8-8-8-81111-------
d-0---0-0-x-x-0-0-x-x-x-x-x-x-0---0-0-x-x-0-0-x-x-x-x-x-x-x-0-3---
a-0---0-0-3/5-0-0-3/6-6-6-6-6-0---0-0-3/5-0-0-3/6-6-6-6/9-9-0-3---
d-0---0-0-----0-0-------------0---0-0-----0-0---------------0-3---
e-----------------------------------------------------------------
b-----------------------------------------------------------------
g-----------------------------------------------------------------
d-3---3---3---3---3---3---3-2----2---2---2---1-1---1---1-1-1-0----
a-3---3---3---3---3---3---3-2----2---2---2---1-1---1---1-1-1-0----
d-3---3---3---3---3---3---3-2----2---2---2---1-1---1---1-1-1-0----
Verses:
e-----------------------------------------------------------------
b-----------------------------------------------------------------
g-----------------------------------------------------------------
d-----------------------------------------------------------------
a----0-0------------------------0---0-0--------------------0------
d----0-0------------------------0---0-0--------------------0------
e-----------------------------------------------------------------
b-----------------------------------------------------------------
g-----------------------------------------------------------------
d-----------------------------------------------------x-x-x-x-x---
a----0-0------------------------0---0-0-----------0-0-0-0-0-0-0-0-
d----0-0------------------------0---0-0-----------0-0-----------0-
e-----------------------------------------------------------------
b-----------------------------------------------------------------
g-----------------------------------------------------------------
d-----------------------------------------------------------------
a--------3h5-----3/6-6-6-6/9------------3h5-----3/6-6-6-6/9-------
d----0-0-----0-0-------------0-0----0-0-----0-0-------------0-0---
e-----------------------------------------------------------------
b-----------------------------------------------------------------
g-----------------------------------------------------------------
d-----------------------------------------------------------------
a--------3h5-----3/6-6-6-6/9------------3h5-----3p0---------------
d----0-0-----0-0-------------0-0----0-0-----0-0-----7-6-5-3-5-3---
Chorus:
e-----------------------------------------------------------------
b-----------------------------------------------------------------
g----------7----7-7---7-7-7-7--75----5---5-5----5---4---4---5----
d-0----0---x----x-x---x-x-x-x--x-x----x---x-x----x---x---x---3----
a-0----0---5----5-5---5-5-5-5--53----3---3-3----3---2---2---3----
d-0----0-----------------------------------------------------3----
e-----------------------------------------------------------------
b-----------------------------------------------------------------
g---------14----14-14-14-14-14-1412--12--12--12-12---12-12---12--
d-0----0---x-----x--x--x--x--x--x--x---x---x---x--x----x--x----x--
a-0----0--12----12-12-12-12-12-1210--10--10--10-10---10-10---10--
d-0----0---0-----0--0--0--0--0------------------------------------
e-----------------------------------------------------------------
b-----------------------------------------------------------------
g----------7----7-7---7-7-7-7--75----5---5-5----5---4---4---5----
d-0----0---x----x-x---x-x-x-x--x-x----x---x-x----x---x---x---3----
a-0----0---5----5-5---5-5-5-5--53----3---3-3----3---2---2---3----
d-0----0-----------------------------------------------------3----
e-----------------------------------------------------------------
b-----------------------------------------------------------------
g---------14----14-14-14-14-14-1412--12------5--5----5--5--7-----
d-0----0---x-----x--x--x--x--x--x--x---x------x--x----x--x--x-----
a-0----0--12----12-12-12-12-12-1210--10------3--3----3--3--5--0--
d-0----0---0-----0--0--0--0--0---------------------------------0--
Intro/Verse/Chorus
Bridge:
e-----------------------------------------------------------------
b-----------------------------------------------------------------
g-----------------------------------------------------------------
d-0-------------3--------------5--------------6-5------6-5-----x-
a-0-------------3--------------5--------------6-5------6-5-----x-
d-0-------------3--------------5--------------6-5------6-5-----x-
Mini Solo: w/ wah
gtr. 3
e-----------------------------------------------------------------
b-----------------------------------------------------------------
g-----------------------------------------------------------------
d-6p0-5p0-3h5-0-6p0-5p0-3h5p3-5---6p0-5p0-3h5-0-6p0-5p0-3h5p3-5---
a-----------------------------------------------------------------
d-----------------------------------------------------------------
gtr. 1&2
e-----------------------------------------------------------------
b-----------------------------------------------------------------
g-----------------------------------------------------------------
d-----------------------------------------------------------------
a-----------------------------------------------------------------
d-6p0-5p0-3-5-0-6p0-5-5-3-5-3-5-3-6p0-5p0-3-5-0-6p0-5-5-3-5-3-5-3-
gtr. 3
e-----------------------------------------------------------------
b-----------------------------------------------------------------
g-----------------------------------------------------------------
d-6p0-5p0-3h5-0-6p0-5p0-3h5p3-5---6p0-5p0-3h5-0-6p0-5p0-3h5p3p0---
a-----------------------------------------------------------------
d-----------------------------------------------------------------
gtr. 1&2
e-----------------------------------------------------------------
b-----------------------------------------------------------------
g-----------------------------------------------------------------
d-----------------------------------------------------------------
a---------------------------------------------------------------0-
d-6p0-5p0-3-5-0-6p0-5-5-3-5-3-5-3-6p0-5p0-3-5-0-6p0-5-5-3-5-3---0-
Guitar Solo:
gtr. 4 w/ wah half cocked
e-17--------------------------------------------------------------
b-20b~~~~~~~~~~~~~~~~~~~~~~~~~~~~~~~~~~~~~~~~~~~~~~~~~~~~~~~~~~~--
g-----------------------------------------------------------------
d-----------------------------------------------------------------
a-----------------------------------------------------------------
d-----------------------------------------------------------------
gtr. 3 (trem pick)
e-----------------------------------------------------------------
b-10-----------------10-----------10---------------10-------------
g-12b~~~~~~~~~~~~~~~-12b~~~~~~~~~-12b~~~~~~~~~~~~~-12b~~~~~~~~~~--
d-----------------------------------------------------------------
a-----------------------------------------------------------------
d-----------------------------------------------------------------
gtr. 1&2
e-----------------------------------------------------------------
b-----------------------------------------------------------------
g-----------------------------------------------------------------
d-6----5----0-6----6----0----0-----6----5----0-6----6----0---0----
a-6----5----0-6----6----0----0-----6----5----0-6----6----0---0----
d-6----5----0-6----6----0----0-----6----5----0-6----6----0---0----
Outro Chorus:
x3
e-----------------------------------------------------------------
b-----------------------------------------------------------------
g-----------7-----7--7---7-7-7-7-75-----5-----5--5---------------
d-0-----0---7-----7--7---7-7-7-7-75-----5-----5--5----3---3---5--
a-0-----0---5-----5--5---5-5-5-5-53-----3-----3--3----3---3---5--
d-0-----0----------------------------------------------3---3---5--
then
e-----------------------------------------------------------------
b-----------------------------------------------------------------
g-----------7-----7--7---7-7-7-7-75-----5-----5--5---5-5-7-7----
d-0-----0---7-----7--7---7-7-7-7-75-----5-----5--5---x-x-x-x----
a-0-----0---5-----5--5---5-5-5-5-53-----3-----3--3---3-3-5-5----
d-0-----0---------------------------------------------------------




Ваше мнение



Капча