Song: Pity
Band: Drowning Pool
From: Sinner
By: Adam Urbz
Mail: [email protected]
Tune: Dropped D; Down One Whole Step (C,G,C,F,A,D)

Sb=Slight Bend
R=Release
=Natural Harmonic

Intro A:(gradually slow down speed)
D|------------------------------------|
A|------------------------------------|
F|------------------------------------|
C|--2-2-2--0-0-0-------3--3---0-0-0--|
G|--2-2-2--0-0-0-------3--3---0-0-0--|
C|--2-2-2--0-0-0-------3--3---0-0-0--|
(Dive Bomb)
Intro B:(strum)
D|---------------------------------------------Gtr.1|
A|--------------------------------------------------|
F|*------------------------------------------------*|
C|*-2--2---2-----0--0---0-----3----3-----0--0---0--*|
G|--2--2---2-----0--0---0-----3----3-----0--0---0---|
C|--2--2---2-----0--0---0-----3----3-----0--0---0---|
| |
D|---------------------------------------------Gtr.2|
A|--------------------------------------------------|
F|*-9--9---9-----7-----(7)---10---10----10/12--12--*|
C|*-x--x---x-----x------x-----x----x-----x------x--*|
G|--7--7---7-----5-----(5)----8----8-----8/10--10---|
C|--------------------------------------------------|

Verse:(w/wah)
D|-------------------------------------------|
A|---------------------------------------|
F|*-------------------------------------*|
C|*-2-------2SbR--0--------------------*|
G|-------------------------------------------|
C|-------------------------------------------|

Chorus:
D|-----------------------------------|
A|-----------------------------------|
F|*---------------------------------*|
C|*-2-2-2--0-0-0-------3--3---0-0-0-*|
G|--2-2-2--0-0-0-------3--3---0-0-0--|
C|--2-2-2--0-0-0-------3--3---0-0-0--|

Bridge:(play 4x with wah & flange,then without)
D|---------------------------------------|
A|---------------------------------------|
F|*-------------------------------------*|
C|*-0--2-2-2-2--0-0-0-0--3-3-3-3--0-0-0-*|
G|--0--2-2-2-2--0-0-0-0--3-3-3-3--0-0-0--|
C|--0--2-2-2-2--0-0-0-0--3-3-3-3--0-0-0--|

Break:(w/wah)
D|------------------------------------|
A|------------------------------------|
F|------------------------------------|
C|--2-2-2-2-2-2-2-2-0-0-0-0-0-0-0-0---|
G|------------------------------------|
C|------------------------------------|
====




Ваше мнение



Капча