Drowning Pool
Nothingness (Intro)
Desensitized (2004)

TUNING - Drop C 1/2 step down (B F# B E G# C#)

C#|--------------------------------------------------|
G#|--------------------------------------------------|
E |--------------------------------------------------|
B |--------------------------------------------------|
F#|-5-5-5-5-5-8-8-8-8-8-5-5-5-5-5-4-4-4-4-4-4-4-0-0-0|
B |-5-5-5-5-5-8-8-8-8-8-5-5-5-5-5-4-4-4-4-4-4-4-0-0-0|
x x

C#|---------------------------------|
G#|---------------------------------|
E |---------------------------------|
B |---------------------------------|
F#|-5-5-5-5-5-8-8-8-8-8-5-5-5-5-5-4|
B |-5-5-5-5-5-8-8-8-8-8-5-5-5-5-5-4|
x x

VERSE
____
C#|------------------------------------------------| |
G#|------------------------------------------------| |
E |------------------------------------------------| |
B |-12h13-12h13-12h13-12h13-12-12-13-13-13-16-16-16| |
F#|------------------------------------------------| |
B |------------------------------------------------| |
}X2
C#|------------------------------------------------| |
G#|------------------------------------------------| |
E |------------------------------------------------| |
B |-12h13-12h13-12h13-12h13-12-12-13-13-13-10-10-10| |
F#|------------------------------------------------| |
B |------------------------------------------------| ____|




Ваше мнение



Капча