Verse
-------------------------------------------------------|
-------------------------------------------------------|
-------------------------------------------------------|
---3--5-5--3--353--------------------------------------|
---3--5-5--3--353--------------------------------------|
---3--5-5--3--353--------------------------------------|
repeats all through the verse
Chorus
-------------------------------------------------------|
-------------------------------------------------------|
-------------------------------------------------------|
---7--7-7--5--5--5-5-5---------------------------------|
---7--7-7--5--5--5-5-5---------------------------------|
---7--7-7--5--5--5-5-5---------------------------------|
This is as good as i can do.Have fun with it.




Ваше мнение



Капча