Creeping Death - Metallica

Tabbed by lil blu guy([email protected])

Intro (Heavy Dist)

E-----------------------------------------------|
B-----------------------------------------------|
G-----------------------------------------------|
D-----------9-----------9-7-----------10---10-9-|
A-----------7-----------7-5-----------9-----9-8-|
E-0-0-0-0-0---0-0-0-0-0-----0-0-0-0-0---0-0-----|

After That

E---------------------------------------------------------|
B---------------------------------------------------------|
G---------------------------------------------------------|
D---------------------------------------------------------|
A-2-2-3-2-2-3-2-0-2-3-2-3-2-1-0---------------------------|
E-0-0-0-0-0-0-0--------------------0-0-3-0-0-3-0-2-2-2-2--|

Chorus

E-------------------------------------------------|
B-------------------------------------------------|
G-------------------------------------------------|
D----5-7-10-12------------------------------------|
A-2--3-5-8--10------------------------------------|
E-0-----------------------------------------------|

Solo (A PART OF IT)

E-------------------------------------------------|
B-------------------------------------------------|
G--------11-12-14-12-11-12-11----------11-12-14---|
D--14-14----------------------12-12-14------------|
A-------------------------------------------------|
E-------------------------------------------------|

E----------12-14-15-17-19-21----------------------|
B-12-13-15----------------------------------------|
G-------------------------------------------------|
D-------------------------------------------------|
A-------------------------------------------------|
E-------------------------------------------------|

E----15-14-12-15-14-12-17-16-14-17-16-14----------|
B-------------------------------------------------|
G-------------------------------------------------|
D-------------------------------------------------|
A-------------------------------------------------|
E-------------------------------------------------|

E--21-20-18-21-20-18------------------------------|
B-------------------------------------------------|
G-------------------------------------------------|
D-------------------------------------------------|
A-------------------------------------------------|
E-------------------------------------------------|

Outro

E-------------------------------------------------|
B-------------------------------------------------|
G-------------------------------------------------|
D----------8-5-7--------10-8-7--------------------|
A--2-XXXX--6-3-5--XXXX--8--6-5--------------------|
E--0-XXXX-----------------------------------------|

Thats it
and remember to watch homer on tha simpsons




Ваше мнение



Капча