band:Drowning pool
song:Bodies
Title:Sinner
Track:2
this is a sweet song so learn how to play it
this song is 100% correct just practice and it
will sound good
Tuning: Drop C, (C,G,C,f,A,D)
intro:
|--------------------------------------------|
|--------------------------------------------|
|-7--7-7-------------------------------------|
|-x--x-x--6--6-6-6--0--0-0--6-6-3-0----------| x2
|-5--5-5--6--6-6-6--0--0-0--6-6-3-0----------|
|---------6--6-6-6--0--0-0--6-6-3-0----------|
|--------------------------------------------------------------------|
|---------------15-15-15-15-15-15-----------------16-16-16-16-16-16--|
|---------------14-14-14-14-14-14-----------------15-15-15-15-15-15--| x4
|--12--12-12-12-12-12-12-12-12-12----12--12-12-13-13-13-13-13-13-13--|
|--------------------------------------------------------------------|
|--------------------------------------------------------------------|
|---------------------------------------|
|---------------------------------------|
|---------------------------------------|
|--0--1--0---0-1-3---0--1--0---0-1-3----| x4
|--0--1--0---0-1-3---0--1--0---0-1-3----|
|--0--1--0---0-1-3---0--1--0---0-1-3----|
|--------------------------------|
|------------14-------------19---|
|-------------x--------------x---|
|--0--0--0---12---0--0--0---17---| x4
|--0--0--0--------0--0--0--------|
|--0--0--0--------0--0--0--------|
|--------------------------------------------|
|--------------------------------------------|
|-7--7-7-------------------------------------|
|-x--x-x--6--6-6-6--0--0-0--6-6-3-0----------| x4
|-5--5-5--6--6-6-6--0--0-0--6-6-3-0----------|
|---------6--6-6-6--0--0-0--6-6-3-0----------|
|--------------------------------------------------------------------|
|---------------15-15-15-15-15-15-----------------16-16-16-16-16-16--|
|---------------14-14-14-14-14-14-----------------15-15-15-15-15-15--| x4
|--12--12-12-12-12-12-12-12-12-12----12--12-12-13-13-13-13-13-13-13--|
|--------------------------------------------------------------------|
|--------------------------------------------------------------------|
|-----------------------------------------|
|-----------------------------------------|
|-----------------------------------------|
|--0--1--0---0-1-3---0--1--0---0-1-3------| x4
|--0--1--0---0-1-3---0--1--0---0-1-3------|
|--0--1--0---0-1-3---0--1--0---0-1-3------|
|------------------------------------|
|------------14-------------19-------|
|------------x---------------x-------|
|--0--0--0---12---0--0--0---17-------| x2
|--0--0--0--------0--0--0------------|
|--0--0--0--------0--0--0------------|
|--------------------------------------------|
|--------------------------------------------|
|-7--7-7-------------------------------------|
|-x--x-x--6--6-6-6--0--0-0--6-6-3-0----------| x2
|-5--5-5--6--6-6-6--0--0-0--6-6-3-0----------|
|---------6--6-6-6--0--0-0--6-6-3-0----------|
just mess with these and it will sound good
|------------------------------------------------|
|------------------------------------------------|
|------------------------------------------------|
|-0-0--2-3-2-5--0-0-0--5-6-5-8--5-5-5--3-3--1-1--| x2
|-0-0--2-3-2-5--0-0-0--5-6-5-8--5-5-5--3-3--1-1--|
|-0-0--2-3-2-5--0-0-0--5-6-5-8--5-5-5--3-3--1-1--|
|--------------------------------------------------------------------|
|---------------15-15-15-15-15-15-----------------16-16-16-16-16-16--|
|---------------14-14-14-14-14-14-----------------15-15-15-15-15-15--| x4
|--12--12-12-12-12-12-12-12-12-12----12--12-12-13-13-13-13-13-13-13--|
|--------------------------------------------------------------------|
|--------------------------------------------------------------------|
|-------------------------------------|
|----14--14-14-----19--19-19----------|
|-----x---x--x------x---x--x----------|
|----12--12-12-----17--17-17----------| x2
|-0-------------0---------------------|
|-0-------------0---------------------|
|----------------------|
|----------------------|
|----------------------|
|-0-0-0---0-0-0--------| x2
|-0-0-0---0-0-0--------|
|-0-0-0---0-0-0--------|
|------------------------------------------------|
|--------14-14-14-14-14---------19-19-19-19-19---|
|---------x--x--x--x--x----------x--x--x--x--x---|
|-0-0-0--12-12-12-12-12--0-0-0--17-17-17-17-17---| x2
|-0-0-0------------------0-0-0-------------------|
|-0-0-0------------------0-0-0-------------------|
|--------------------------------------------|
|--------------------------------------------|
|-7--7-7-------------------------------------|
|-x--x-x--6--6-6-6--0--0-0--6-6-3-0----------| x4
|-5--5-5--6--6-6-6--0--0-0--6-6-3-0----------|
|---------6--6-6-6--0--0-0--6-6-3-0----------|
on the second time dont play the open part
|----------------------------------|
|----------------------------------|
|-7--7-7-6-6-6-6--7--7-7-6-6--3-0--|
|-x--x-x-6-6-6-6--7--7-7-6-6--3-0--| x2
|-5--5-5-6-6-6-6--5--5-5-6-6--3-0--|
|----------------------------------|




Ваше мнение



Капча