-----------------------------------------------------------------------------
Walk Away- Dropkick Murphys
-----------------------------------------------------------------------------
Tabbed by:steph
Email: [email protected]
Tuning:standard
**listen to song for strumming pattern**
/ - slide
intro x1 (0:01 - 0:13)
e|-------------------------------------------------------------------------|
B|-------------------------------------------------------------------------|
G|-4-----------------------------------------------------------------------|
D|-4---4---7---2-----------------------------------------------------------|
A|-2---4---7---2-----------------------------------------------------------|
E|-----2---5---0-----------------------------------------------------------|
verse 1 x2 (0:14 - 0:33)
e|-------------------------------------------------------------------------|
B|-------------------------------------------------------------------------|
G|-4---------------4-------------------------------------------------------|
D|-4---4---2---4---4-------------------------------------------------------|
A|-2---4---2---4---2-------------------------------------------------------|
E|-----2---0---2-----------------------------------------------------------|
intro x1 (0:34 - 0:43)
e|-------------------------------------------------------------------------|
B|-------------------------------------------------------------------------|
G|-4-----------------------------------------------------------------------|
D|-4---4---7---2-----------------------------------------------------------|
A|-2---4---7---2-----------------------------------------------------------|
E|-----2---5---0-----------------------------------------------------------|
verse/chorus x1 (0:44 - 1:06)
e|-----------------------------0-------------------------------------------|
B|-----------------------------0-------------------------------------------|
G|-4---------------4-------4---1-------4-----------------------------------|
D|-4---4---2---4---4---4---4---2---4---4-----------------------------------|
A|-2---4---2---4---2---4---2---2---4---2-----------------------------------|
E|-----2---0---2-------2-------0---2---------------------------------------|
bridge 1 x1 (1:07 - 1:16)
e|-------------------------------------------------------------------------|
B|-------------------------------------------------------------------------|
G|-------------4---6-------------------------------------------------------|
D|-6---4---4---4---6-------------------------------------------------------|
A|-6---4---4---2---4-------------------------------------------------------|
E|-4---2---2---------------------------------------------------------------|
chorus 2 x2 (1:17 - 1:38)
e|-------------------------------------------------------------------------|
B|-------------------------------------------------------------------------|
G|-6---4-------6-----------------------------------------------------------|
D|-6---4---4---6-----------------------------------------------------------|
A|-4---2---4---4-----------------------------------------------------------|
E|---------2---------------------------------------------------------------|
intro x1 (1:39 - 1:48)
e|-------------------------------------------------------------------------|
B|-------------------------------------------------------------------------|
G|-4-----------------------------------------------------------------------|
D|-4---4---7---2-----------------------------------------------------------|
A|-2---4---7---2-----------------------------------------------------------|
E|-----2---5---0-----------------------------------------------------------|
verse 1 x2 (1:49 - 2:10)
e|-------------------------------------------------------------------------|
B|-------------------------------------------------------------------------|
G|-4---------------4-------------------------------------------------------|
D|-4---4---2---4---4-------------------------------------------------------|
A|-2---4---2---4---2-------------------------------------------------------|
E|-----2---0---2-----------------------------------------------------------|
chorus 2 x2 (2:11 - 2:34)
e|-------------------------------------------------------------------------|
B|-------------------------------------------------------------------------|
G|-6---4-------6-----------------------------------------------------------|
D|-6---4---4---6-----------------------------------------------------------|
A|-4---2---4---4-----------------------------------------------------------|
E|---------2---------------------------------------------------------------|
bridge 2 x1 (2:35 - 2:39)
e|-------------------------------------------------------------------------|
B|-------------------------------------------------------------------------|
G|-4-------4/6-------------------------------------------------------------|
D|-4---4---4/6-------------------------------------------------------------|
A|-2---4---2/4-------------------------------------------------------------|
E|-----2-------------------------------------------------------------------|
chorus 2 x1 (2:40 - 2:49)
e|-------------------------------------------------------------------------|
B|-------------------------------------------------------------------------|
G|-6---4-------6-----------------------------------------------------------|
D|-6---4---4---6-----------------------------------------------------------|
A|-4---2---4---4-----------------------------------------------------------|
E|---------2---------------------------------------------------------------|




Ваше мнение



Капча