---------------------------------------------------------------------------=
THE NEW AMERICAN WAY - DropKick Murphys
---------------------------------------------------------------------------=

By: Antwizzle [email protected]

Intro ~
e|-------------------------------------------------------------------------|
B|-------------------------------------------------------------------------|
G|-777777777777---9--5--2--------------------------------------------------|
D|-777777777777---9--5--2--------------------------------------------------|
A|-555555555555---9--3--0--------------------------------------------------|
E|-------------------------------------------------------------------------|

Solo
e|-9----7-5-3-0-0-1-1-3-3-1-0----------------------------------------------|
B|---8---------------------------------------------------------------------|
G|-------------------------------------------------------------------------|
D|-------------------------------------------------------------------------|
A|-------------------------------------------------------------------------|
E|-------------------------------------------------------------------------|

Rest (listen to song for timing)
e|-------------------------------------------------------------------------|
B|-------------------------------------------------------------------------|
G|-5-5-5-5-5-5-5-5-5----2-2-2-2-2-2-2-2-2----------------------------------|
D|-5-5-5-5-5-5-5-5-5----2-2-2-2-2-2-2-2-2----------------------------------|
A|-3-3-3-3-3-3-3-3-3----0-0-0-0-0-0-0-0-0----------------------------------|
E|-------------------------------------------------------------------------|




Ваше мнение



Капча