-----------------------------------------------------------------------------
THE LEGEND OF FIN MACCUMHAIL - Dropkick Murphys
-----------------------------------------------------------------------------

By: Antwizzle [email protected]

Intro 2x
e|--------------------------|--3-----0-----3-----2-----3-----0-----3--2--3--
B|--------------------------|--0-----1-----0-----3-----0-----1-----0--3--0--
G|--------------------------|--0-----0-----0-----2-----0-----0-----0--2--0--
D|--------5-----7-----------|--0-----2-----0-----0-----0-----2-----0--0--0--
A|--5-----3-----5-----5-----|--2-----3-----2-----------2-----3-----2-----2--
E|--3-----------------3-----|--3-----------3-----------3-----------3-----3--

Verse 1 Bridge 2x
e|-------------------------------------------------|------------------------
B|-------------------------------------------------|------------------------
G|--------5-----7-----------------5--------5--7----|----------55-5-5--77-7-7
D|--5-----5-----7-----5-----5-----5-----5--5--7----|--55-5-5--55-5-5--77-7-7
A|--5-----3-----5-----5-----5-----3-----5--3--5----|--55-5-5--33-3-3--55-5-5
E|--3-----------------3-----3-----------3----------|--33-3-3----------------

Verse 2 2x
e|------------------------------------------------------------------------|
B|-------------------*-*-*-*-*-*-*-*--*-*-*-*-*-*-*-*---------------------|
G|--*-*-*-*-*-*-*-*--5-5-5-5-5-5-5-5--7-7-7-7-7-7-7-7--*-*-*-*-*-*-*-*----|
D|--5-5-5-5-5-5-5-5--5-5-5-5-5-5-5-5--7-7-7-7-7-7-7-7--5-5-5-5-5-5-5-5----|
A|--5-5-5-5-5-5-5-5--3-3-3-3-3-3-3-3--5-5-5-5-5-5-5-5--5-5-5-5-5-5-5-5----|
E|--3-3-3-3-3-3-3-3------------------------------------3-3-3-3-3-3-3-3----|

Verse 1 Bridge 2x
e|-------------------------------------------------|-------------------------
B|-------------------------------------------------|-------------------------
G|--------5-----7-----------------5--------5--7----|----------55-5-5--77-7-7-
D|--5-----5-----7-----5-----5-----5-----5--5--7----|--55-5-5--55-5-5--77-7-7-
A|--5-----3-----5-----5-----5-----3-----5--3--5----|--55-5-5--33-3-3--55-5-5-
E|--3-----------------3-----3-----------3----------|--33-3-3-----------------

Verse 2 2x
e|------------------------------------------------------------------------|
B|-------------------*-*-*-*-*-*-*-*--*-*-*-*-*-*-*-*---------------------|
G|--*-*-*-*-*-*-*-*--5-5-5-5-5-5-5-5--7-7-7-7-7-7-7-7--*-*-*-*-*-*-*-*----|
D|--5-5-5-5-5-5-5-5--5-5-5-5-5-5-5-5--7-7-7-7-7-7-7-7--5-5-5-5-5-5-5-5----|
A|--5-5-5-5-5-5-5-5--3-3-3-3-3-3-3-3--5-5-5-5-5-5-5-5--5-5-5-5-5-5-5-5----|
E|--3-3-3-3-3-3-3-3------------------------------------3-3-3-3-3-3-3-3----|

Verse 1
e|-------------------------------------------------|
B|-------------------------------------------------|
G|--------5-----7-----------------5--------5--7----|
D|--5-----5-----7-----5-----5-----5-----5--5--7----|
A|--5-----3-----5-----5-----5-----3-----5--3--5----|
E|--3-----------------3-----3-----------3----------|

Outro 2x
e|--3-----0-----3-----2-----3-----0-----3---2---3---|
B|--0-----1-----0-----3-----0-----1-----0---3---0---|
G|--0-----0-----0-----2-----0-----0-----0---2---0---|
D|--0-----2-----0-----0-----0-----2-----0---0---0---|
A|--2-----3-----2-----------2-----3-----2-------2---|
E|--3-----------3-----------3-----------3-------3---|




Ваше мнение



Капча