Artist: Dropkick Murphys
Song: Tenant Enemy #1
Album: Do or Die
Track: 12
Tabbed by: Rick ([email protected])
AIM: unhlax23
Intro:
E|-------------------------|
B|-------------------------|
G|--------5-5--------------|
D|-5--5-5-5-5--5--5-5-5-5--|
A|-5--5-5-3-3--5--5-5-5-5--|
E|-3--3-3------3--3-3-3-3--|
Verse:
E|----------------------------------|
B|----------------------------------|
G|---------5-5-5-5------------------|
D|-5-5-5-5-5-5-5-5-5-5-5-5-5-5-5-5--|
A|-5-5-5-5-3-3-3-3-5-5-5-5-5-5-5-5--|
E|-3-3-3-3---------3-3-3-3-3-3-3-3--|
|-----------------------------|
palm mute
Pre-Chorus:
E|-----------------------------------------------------------------|
B|-----------------------------------------------------------------|
G|----------------------------------7-7-7-7-7-7-7-7-7-7-7-7-7-7-7-7|
D|--5-5-5-5-5-5-5-5-5-5-5-5-5-5-5-5-7-7-7-7-7-7-7-7-7-7-7-7-7-7-7-7|
A|--5-5-5-5-5-5-5-5-5-5-5-5-5-5-5-5-5-5-5-5-5-5-5-5-5-5-5-5-5-5-5-5|
E|--3-3-3-3-3-3-3-3-3-3-3-3-3-3-3-3--------------------------------|
Chorus:
E|----------------------------------------------------------------|
B|----------------------------------------------------------------|
G|---------5-5-5-5---------5-5-5-5---------5-5-5-5-7-7-7-7-7-7-7-7|
D|-5-5-5-5-5-5-5-5-5-5-5-5-5-5-5-5-5-5-5-5-5-5-5-5-7-7-7-7-7-7-7-7|
A|-5-5-5-5-3-3-3-3-5-5-5-5-3-3-3-3-5-5-5-5-3-3-3-3-5-5-5-5-5-5-5-5|
E|-3-3-3-3---------3-3-3-3---------3-3-3-3------------------------|
Solo:
E|----------------------------------------------------------------|
B|----------------------------------------------------------------|
G|----------------------------------------------------------------|
D|-5-5---7-5-7-9-9---9-7-9-9-9----10-9-10--12--12-12-12-----------|
A|----------------------------------------------------------------|
E|----------------------------------------------------------------|
Those should be all the parts, just figure out where they go.
Email me with questions and rate this, and my other tabs. Thanks. Later.




Ваше мнение



Капча