-----------------------------------------------------------------------------
TEN YEARS OF SERVICE - Dropkick Murphys
-----------------------------------------------------------------------------
by: Antwizzle [email protected]
riff A
|-2-|
|-3-|
|-2-|
|-0-|
|-0-|
|---|
(ler ring)
riff B
|-------------------------------------|-0-0-0-0-0-0-0-0-0-0-0-0-0-0-0-0-|
|-------------------------------------|-0-0-0-0-0-0-0-0-0-0-0-0-0-0-0-0-|
|-2-2-4-2-2-2-4-2---------------------|-1-1-1-1-1-1-1-1-1-1-1-1-1-1-1-1-|
|-0-0-0-0-0-0-0-0--2-2-4-2-2-2-4-2(x2)|-2-2-2-2-2-2-2-2-2-2-2-2-2-2-2-2-|
|------------------0-0-0-0-0-0-0-0----|-2-2-2-2-2-2-2-2-2-2-2-2-2-2-2-2-|
|-------------------------------------|-0-0-0-0-0-0-0-0-0-0-0-0-0-0-0-0-|
riff C
|-2--2-2-2---0--0-0-0-|-0-0-0-0--0-0-0-0-|
|-3--3-3-3---2--2-2-2-|-0-0-0-0--0-0-0-0-|
|-2--2-2-2---2--2-2-2-|-1-1-1-1--1-1-1-1-|
|-0--0-0-0---2--2-2-2-|-2-2-2-2--2-2-2-2-|
|-0--0-0-0---0--0-0-0-|-2-2-2-2--2-2-2-2-|
|---------------------|-0-0-0-0--0-0-0-0-|
riff D
|-0--0-0-0---2--2-2-2---0--0-0-0---0--0-0-0-|
|-2--2-2-2---3--3-3-3---2--2-2-2---0--0-0-0-|
|-2--2-2-2---2--2-2-2---2--2-2-2---1--1-1-1-|
|-2--2-2-2---0--0-0-0---2--2-2-2---2--2-2-2-|
|-0--0-0-0---0--0-0-0---0--0-0-0---2--2-2-2-|
|----------------------------------0--0-0-0-|

riff D (continued)
|-0--0-0-0---2-x--0-2---0--0-0-0---0--0-0-0--0--0-0-0-|-0--0-0-0-|
|-2--2-2-2---3-x--2-3---2--2-2-2---0--0-0-0--0--0-0-0-|-0--0-0-0-|
|-2--2-2-2---2-x--2-2---2--2-2-2---1--1-1-1--1--1-1-1-|-1--1-1-1-|
|-2--2-2-2---0-x--2-0---2--2-2-2---2--2-2-2--2--2-2-2-|-2--2-2-2-|
|-0--0-0-0---0-x--0-0---0--0-0-0---2--2-2-2--2--2-2-2-|-2--2-2-2-|
|----------------------------------0--0-0-0--0--0-0-0-|-0--0-0-0-|
riff E
|-2--2-2-2---0--0-0-0---0-0-x-x-2-0-0--00-00-|
|-3--3-3-3---0--0-0-0---2-2-x-x-3-2-2--22-22-|
|-2--2-2-2---1--1-1-1---2-2-x-x-2-2-2--22-22-|
|-0--0-0-0---2--2-2-2---2-2-x-x-0-2-2--22-22-|
|-0--0-0-0---2--2-2-2---0-0-x-x-0-0-0--00-00-|
|------------0--0-0-0------------------------|

riff F
|--------------------------------------------------------------------|
|--------------------------------------------------------------------|
|------------------2-2-4-2-2-2-4-2-----------------------------------|
|-2-2-4-2-2-2-4-2--0-0-0-0-0-0-0-0--2-2-4-2-2-2-4-2------------------|
|-0-0-0-0-0-0-0-0-------------------0-0-0-0-0-0-0-0--2-2-4-2-2-2-4-2-|
|----------------------------------------------------0-0-0-0-0-0-0-0-|
riff F (continued)

|-0---0---0---0-|
|-0---0---0---2-|
|-1---1---1---2-|
|-2---2---2---2-|
|-2---2---2---0-|
|-0---0---0-----|
(let ring-----)
Structure:
A
B
C(x2)
D
C(x2)
D(x2)
E(x4)
D(x2)
F




Ваше мнение



Капча