-----------------------------------------------------------------------------
SKINHEAD ON THE MBTA - Dropkick Murhpys
-----------------------------------------------------------------------------
By:Antwizzle [email protected]
Intro
e|-----------------------------|
B|-----------------------------|
G|-----------------------------|
D|-----------------------------|
A|-----4--7--4--7--5--4--------|
E|--5--------------------7--5--|
Verse(mostly pm)/Chorus
e|---------------------------------------------------|
B|---------------------------------------------------|
G|--------------7-7-7-7-7-7-------------9-9-9-9-9-9--|
D|--7-7-7-7-7-7-7-7-7-7-7-7-7-7-7-7-7-7-9-9-9-9-9-9--|
A|--7-7-7-7-7-7-5-5-5-5-5-5-7-7-7-7-7-7-7-7-7-7-7-7--|
E|--5-5-5-5-5-5-------------5-5-5-5-5-5--------------|
e|---------------------------------------------------|
B|---------------------------------------------------|
G|--------------7-7-7-7-7-7-------9-9-9--------------|
D|--7-7-7-7-7-7-7-7-7-7-7-7-7-7-7-9-9-9-7-7-7-7-7-7--|
A|--7-7-7-7-7-7-5-5-5-5-5-5-7-7-7-7-7-7-7-7-7-7-7-7--|
E|--5-5-5-5-5-5-------------5-5-5-------5-5-5-5-5-5--|
SOLO
E|--------------------------------------------|
B|--------------------------------------------|
G|----------9-7-------11-9--------9-7---------|
D|--------7-----9---9------11---7-----9--7~~--|
A|--------------------------------------------|
E|--------------------------------------------|
E|-----------------------------------------------|
B|-----------------------------------------------|
G|----------9-7-------11-9--------9-7------------|
D|--------7-----9---9------11---7-----9~~-/12~~--|
A|-----------------------------------------------|
E|-----------------------------------------------|
The pub part:Listen for strumming pattern
A D A E
E|--0---2---0---0---
B|--2---3---2---0---
G|--2---2---2---1---
D|--2---0---2---2---
A|--0---0---0---2---
E|--0---0---0---0---
Just listen to the song for the timing and ordering of the song. Its Really easy.

Heres another dkm one from me any questions just email me....




Ваше мнение



Капча