Dropkick Murphies--Skinhead on the MTBA
Tabbed out by Lance Gergar
([email protected])
I think the solo is right
INTRO
E----------------------------- ----------|
B----------------------------- ----------|
G----------------------------- --7---7---|
D-------------------7-7-7-7--- BASS MIXES IN --7---7---|
A-------7----7-5----7-7-7-7--- WITH --5---9---|
E--5--9---9-----9-7-5-5-5-5--- 5-5-5... ----------|
VERSE
E---------------------------------------------------------
B---------------------------------------------------------
G-------------------9-9-9-9-------------------11-11-11-11-
D--9-9-9-9-9-9-9-9--9-9-9-9--9-9-9-9-9-9-9-9--11-11-11-11-
A--9-9-9-9-9-9-9-9--7-7-7-7--9-9-9-9-9-9-9-9--9--9--9--9--
E--7-7-7-7-7-7-7-7-----------7-7-7-7-7-7-7-7--------------
E-------------------------------------------------|
B-------------------------------------------------|
G-------------------9-9-9-9----------11--11-11----|
D--9-9-9-9-9-9-9-9--9-9-9-9--9--9-9--11--11-11-9--|
A--9-9-9-9-9-9-9-9--7-7-7-7--9--9-9--9---9--9--9--|
E--7-7-7-7-7-7-7-7-----------7--7-7------------7--|
CHORUS
E------------------------
B------------------------
G--------9-9---------11--
D--9-9---9-9---9-9---11--
A--9-9---7-7---9-9---9---
E--7-7---------7-7-------
E------------------------------|
B------------------------------|
G--------9-9---------11-11-----|
D--9-9---9-9---9-9---11-11--9--|
A--9-9---7-7---9-9---9--9---9--|
E--7-7---------7-7----------7--|
SOLO
E--------------------------------------------|
B--------------------------------------------|
G----------9-7-------11-9--------9-7---------|
D--------7-----9---9------11---7-----9--7~~--|
A--------------------------------------------|
E--------------------------------------------|
THE PUB PART
A,D,A,E




Ваше мнение



Капча