Artist: Dropkick Murphys
Song: Pipebomb on Lansdown
Album: The Gang's All Here
Track: 3
Tabbed by: Rick ([email protected])
AIM: unhlax23
Chords:
F#5 (244xxx)
E5 (022xxx)
A5 (577xxx) or (x022xx)
B5 (799xxx) or (x244xx)
F#2 (x9-11-11xx)
C5 (x355xx)
Intro: Bass starts, then play these chords and let them ring
F#5 A5 B5 F#5 A5 B5 F#2
E|------------------------------------------------------------------|
B|------------------------------------------------11-11-11-11-------|
G|------------------------------------------------11-11-11-11-------|
D|--4------7------9-------4------4------7-------9-11-11-11-11-------|
A|--4------7------9-------4------4------7-------9--9--9--9--9-------|
E|--2------5------7-------2------2------5-------7-------------------|
Verse: Play intro chords without letting them ring
F#5 A5 B5 F#5
E|------------------------------------------|
B|------------------------------------------|
G|------------------------------------------|
D|--4-4-4-4-4-7-7-7-7-7-9-9-9-9-9-4-4-4-4-4-|
A|--4-4-4-4-4-7-7-7-7-7-9-9-9-9-9-4-4-4-4-4-|
E|--2-2-2-2-2-5-5-5-5-5-7-7-7-7-7-2-2-2-2-2-|
Bridge: This is played just before the chorus
F#5 E5 F#5 C5 B5 A5
E|-------------------------------|
B|-------------------------------|
G|----------------5-5-5-5-5-4-2--|
D|-4----2----4----5-5-5-5-5-4-2--|
A|-4----2----4----3-3-3-3-3-2-0--|
E|-2----0----2-------------------|
Chorus: Played like the bridge but don't let the chords ring
F#5 E5 F#5 C5 B5 A5
E|-----------------------------------------------|
B|-----------------------------------------------|
G|--------------------------------5-5-5-5-5-4-2--|
D|-4-4-4-4-4-2-2-2-2-2-4-4-4-4-4--5-5-5-5-5-4-2--|
A|-4-4-4-4-4-2-2-2-2-2-4-4-4-4-4--3-3-3-3-3-2-0--|
E|-2-2-2-2-2-0-0-0-0-0-2-2-2-2-2-----------------|
Ending
C5 B5 A5 F#5
E|-----------|
B|-----------|
G|--5-4-2----|
D|--5-4-2-4--|
A|--3-2-0-4--|
E|--------2--|
That's it, not too bad. It goes pretty fast though. Email me with questions and stuff.




Ваше мнение



Капча