Artist: Dropkick Murphys
Song: In the Streets of Boston
Tabbed by: Rick ([email protected])
AIM: rickrack97
Chords:
F#2 (x9-11-11xx) or (xx467x) I use the first one
G2 (x10-12-12xx)
A5 (x022xx)
E5 (022xxx)
B5 (x244xx)
C5 (x355xx)
IN THE STREETS OF BOSTON!!!
Intro/Verse: the timing is not perfect
E|----------------------------------------------|
B|----------------------------------------------|
G|11-11-11---11-11-11---2---4--4-4-4------------|
D|11-11-11---11-11-11---2-2-4--4-4-4------------|
A|-9--9--9----9--9--9---0-2-2--2-2-2------------|
E|------------------------0---------------------|
Chorus:
E|----------------------------------------------|
B|----------------------------------------------|
G|11-11--12-11-11--5-4---2-4--------------------|
D|11-11--12-11-11--5-4---2-4--------------------|
A|-9--9--10--9--9--3-2---0-2--------------------|
E|----------------------------------------------|
End the chorus by playing this:
E|----------------------------------------------|
B|----------------------------------------------|
G|--5-4---2-4---5-4---2-4-11-11-11-11-11-11-11--|
D|--5-4---2-4---5-4---2-4-11-11-11-11-11-11-11--|
A|--3-2---0-2---3-2---0-2--9--9--9--9--9--9--9--|
E|----------------------------------------------|
That's all. See you later people.




Ваше мнение



Капча