Band:Dropkick Murphys
Song:Good rats (Live version)
Album:Live on St.Patricks day 2002
E-mail: [email protected]
Intro
1 2 1 2 3 4
e|--------------|
B|--------------|
G|--------------|
D|-5-5--5-5-5-5-|
A|-x-x--x-x-x-x-|
E|-3-3--3-3-3-3-|
Riff (Down and up strokes)
|---------------------------------|
|-6-6-6-6-------------------------|
|-5-5-5-5-5-5-5-5---------5-5-5-5-|
|-3-3-3-3-5-5-5-5-5-5-5-5-5-5-5-5-|
|---------3-3-3-3-5-5-5-5-3-3-3-3-|
|-----------------3-3-3-3---------|
Verse (clean)
|-------------------------|
|-1-1-1-1-1-1-1-1-1-1-1-1-| Listen to the song for correct
|-0-0-0-0-0-0-0-0-0-0-0-0-| amount of storkes. down and up
|-2-2-2-2-2-2-0-0-0-2-2-3-| strokes.
|-3-3-3-3-3-3-2-2-2-3-3-3-|
|-------------3-3-3-------|
Chorus
|-----------------------------|
|-----------------------------|
|-----------------5-5-5-5-5-5-|
|-3-3-3-3-5-5-5-5-5-5-5-5-5-5-|
|-3-3-3-3-5-5-5-5-3-3-3-3-3-3-|
|-1-1-1-1-3-3-3-3-------------|

Outro (play whats in the () fast)
|---------------------------------------------------|
|---------------------------------------------------|
|-----------------5~--(555555555555555555555555)-5~-|
|-3-3-3-3-5-5-5-5-5~--(555555555555555555555555)-5~-|
|-3-3-3-3-5-5-5-5-3~--(333333333333333333333333)-3~-|
|-1-1-1-1-3-3-3-3-----------------------------------|
Order
Intro x1
Riff x4
Verse x4
Intro x1
Verse x1
Intro x1
Chorus x4
intro x1
Verse x4
Intro x1
Chorus x4
Intro x1
Riff X4
Intro x1
Verse No guitar
Intro x1
Chorus x7
Outro x1
This song was actually hard enough to tab.Its not perfect but very close
But it is a great song.Rate the tabs.will make me tab more.
Any comments To e-mail.




Ваше мнение



Капча