-GONNA BE A BLACKOUT TONIGHT-

INTRO
e|-------------------------------------------------------------|
B|-------------------------------------------------------------|
G|-9-------9-------9--7----9--7----9--7--9--7--9--7--9--7------|
D|-9-------9-------9--7----9--7----9--7--9--7--9--7--9--777775-|
A|-7-------7-------7--5----7--5----7--5--7--5--7--5--7--577775-|
E|-------------------------------------------------------55553-|

PART 1
e|---------------------------------|
B|---------------------------------|
G|-9999999977777777999999999-------|
D|-77777777555555557777777777775---|
A|-77777777555555557777777777775---|
E|--------------------------5553---|

PART 2
e|------------------------------------------------------------------|
B|------------------------------------------------------------------|
G|-999999997777777799999999999999999999999977777777-----------------|
D|-9999999977777777999999999999999999999999777777777777777799999999-|
A|-7777777755555555777777777777777777777777555555557777777799999999-|
E|-------------------------------------------------5555555577777777-|

PART 3
e|-----------------------------------------------------------|
B|-----------------------------------------------------------|
G|-999999997777777799999999999999999999999977777777----------|
D|-999999997777777799999999999999999999999977777777777777779-|
A|-777777775555555577777777777777777777777755555555777777779-|
E|-------------------------------------------------555555557-|

PART 4
e|----------------------------------|
B|----------------------------------|
G|-777777777-------777777777--------|
D|-77777777777775--77777777777775---|
A|-55555555577775--55555555577775---|
E|----------55553-----------55553---|

PART 5
e|--------------------------------------------------------------------|
B|--------------------------------------------------------------------|
G|-999999999999999999999999999999-----77777777777777777777777777778888|
D|-9999999999999999999999999999999-9-777777777777777777777777777778888|
A|-7777777777777777777777777777779-9-755555555555555555555555555556666|
E|-------------------------------7-7-5--------------------------------|
REPEAT PARTS 3,4,AND 5

AFTER REPEAT,

PART 6
e|----------------------------------------------|
B|----------------------------------------------|
G|-9----7----5----4----9----7----5----44444-9---|
D|-9----7----5----4----9----7----5----44444-9---|
A|-7----5----3----2----7----5----3----22222-7---|
E|----------------------------------------------|

PART 7
e|------------------------------|
B|------------------------------|
G|-9--7--9--7--9--7--9--7-------|
D|-9--7--9--7--9--7--9--777775--|
A|-7--5--7--5--7--5--7--577775--|
E|-----------------------55553--|

PART 8
e|----------------------------------------------------------|
B|----------------------------------------------------------|
G|999999997777777799999999999999999999999977777777----------|
D|999999997777777799999999999999999999999977777777777777779-|
A|777777775555555577777777777777777777777755555555777777779-|
E|------------------------------------------------555555557-|

PART 9
e|---------------------------------|
B|---------------------------------|
G|777777777-------777777777--------|
D|77777777777775--77777777777775---|
A|55555555577775--55555555577775---|
E|---------55553-----------55553---|

PART 10
e|--------------------------------------------------------------------|
B|--------------------------------------------------------------------|
G|999999999999999999999999999999------7777777777777777777777777777---9|
D|999999999999999999999999999999-9-9-777777777777777777777777777779979|
A|777777777777777777777777777777-9-9 755555555555555555555555555559977|
E|-------------------------------7-7-5----------------------------775-|




Ваше мнение



Капча