This is a cool upbeat song by D.K.Ms (it might be easier for you, to replace
the B chord with a C# chord)

*Intro (clean)
E ---------------------------------------------
B ---------------------------------------------
G -4--------------------9----------4----11-----
D -4---------6----------9----------4----11-----
A -2---------6----------7----------2----9------
E -----------4---------------------------------
*Intro p2 :Guitar 1:
E -------------------------------------------------
B -------------------------------------------------
G -4-4444------------9-9999----11-11111111--9------
D -4-4444-8-6-6666-9-9-9999--9-11-11111111--9------
A -2-2222-8-6-6666-9-7-7777--9-9--9-9-9-9---7------
E --------6-4-4444-7---------7---------------------
*Intro p2 :Guitar 2: (play single notes 2x, then play each note 8x)
E -----------------------------------------------
B -----------------------------------------------
G -4--------------9--------11--------------------
D -4------6-------9--------11--------------------
A -2------6-------7--------9---------------------
E --------4--------------------------------------
*Verse (same timing as intro, but with distortion)
E -----------------------------------------------
B -----------------------------------------------
G -4-------------------9-----------4-----11------
D -4---------6---------9-----------4-----11------
A -2---------6---------7-----------2-----9-------
E -----------4-----------------------------------
*Chorus :Guitar 1:
E -----------------------------------------------
B -----------------------------------------------
G -4-4444------------9-9999----11-11111111--9----
D -4-4444-8-6-6666-9-9-9999--9-11-11111111--9----
A -2-2222-8-6-6666-9-7-7777--9-9--9-9-9-9---7----
E --------6-4-4444-7---------7-------------------
*Chorus :Guitar 2:
E -----------------------------------------------
B -----------------------------------------------
G -4------------------9----------11--------------
D -4--------6---------9----------11--------------
A -2(8x)----6---------7(8x)------9(8x)-----------
E ----------4(8x)--------------------------------
*Break p1
E ------------------------------------------------
B ------------------------------------------------
G -4--------9---------11---------4----------------
D -4--------9---------11---------4----------------
A -2(16x)---7(16x)----9(16x)-----2(16x)-----------
E ------------------------------------------------
*Break p2 (play 2x)
E ------------------------------------------------
B ------------------------------------------------
G -4---------8---------9---------11---------------
D -4---------8---------9---------11---------------
A -2---------6---------7---------9----------------
E ------------------------------------------------
*Break end
E ----------------------------------------------------------------------------------------
B ----------------------------------------------------------------------------------------
G -4--------8-------9-------11--------4--------8-------9-----------------11--1111111111---
D -4--------8-------9-------11--------4--------8-------9--------9-99999--11--1111111111---
A -2(16x)---6(16x)---7(16x)---9(16x)--2(16x)---6(16x)---7(16x)--9-99999--9---9-9-9-9-9----
E --------------------------------------------------------------7-77777-------------------

Song Order: Intro For any questions, comments, complaints, or requests
Intro p2 , Email me at [email protected]
Verse
Chorus
Verse
Chorus
Break p1
Break p2
Break End
Chorus




Ваше мнение



Капча