Song:curse of a fallen soul
Album:The gangs all here
Band:Dropkick Murphys
Email:[email protected]

Keyboard intro...(clean electric)
e|-3---0---3---0---3---0---2---3--|
B|-3---1---3---1---3---1---3---3--|
G|-0---0---0---0---0---0---2---0--|
D|-0---2---0---2---0---2---0---0--|
A|-2---3---2---3---2---3-------2--|
E|-3-------3-------3-----------3--|
Verse
e|-------------------------------------------------------------------|
B|-------------------------------------------------------------------|
G|----------77777777----------77777777-55555555----------7~---7------|
D|-55555555-77777777-55555555-77777777-55555555-77777777-7~---7(x16)-|
A|-55555555-55555555-55555555-55555555-33333333-77777777-5~---5------|
E|-33333333----------33333333-------------------55555555-------------|
Chorus
e|---------------------------------|
B|---------------------------------|
G|---------2-2-2-2-7-7-7-7-7-7-7-7-|
D|-5-5-5-5-2-2-2-2-7-7-7-7-7-7-7-7-|
A|-5-5-5-5-0-0-0-0-5-5-5-5-5-5-5-5-|
E|-3-3-3-3-------------------------|
(Solo thingy) (Shouldnt really call it one)Its something like this mess round
with the progression
e|----------------------------|
B|----------------------------|
G|----------------------------|
D|------------------7----7----|
A|----5------7----7----5---5--|
E|--3---3--5----5-------------|
End of solo(Eos)
e|-------------------------------------|
B|-------------------------------------|
G|----------2-2-2-2--7-7-7-7-7-7-7-7---|
D|-5-5-5-5--2-2-2-2--7-7-7-7-7-7-7-7-5-|
A|-5-5-5-5--0-0-0-0--5-5-5-5-5-5-5-5-5-|
E|-3-3-3-3---------------------------3-|
Bridge
e|--------------|
B|--------------|
G|------7-------|
D|-5----7(x16)--|
A|-5----5-------|
E|-3------------|
Verse 2
e|----------------------------------------------------------|
B|----------------------------------------------------------|
G|----------77777777----------77777777-55555555----------7~-|
D|-55555555-77777777-55555555-77777777-55555555-77777777-7~-|
A|-55555555-55555555-55555555-55555555-33333333-77777777-5~-|
E|-33333333----------33333333-------------------55555555----|
outro
|----------------------------|
|----------------------------|
|-------7----------------7~--|
|-5--7--7----------------7~--|
|-5--7--5-555555555555---5~--|
|-3--5-----------------------|
Listen to song for timing.Great punk song.Rate please
Order
Intro x3
Verse x1
Chorus x4
Verse x1
Chorus x4
Verse x1
Solo x3
Eos x1
Pause
Bridge x1
Chorus x4
Verse2 x1
Outro x1




Ваше мнение



Капча