Song:Boys on the dock(acoustic)(PUB VERSION)
Band:Dropkick murphys
Album:Do Or Die
E-mail: [email protected]
Intro
|----------------------------------------------
|-11111111-33333333-11111111-33333333-11111111-
|-00000000-00000000-00000000-00000000-00000000-
|-22222222-00000000-22222222-00000000-22222222-
|-33333333-22222222-33333333-22222222-33333333-
|----------33333333----------33333333----------
----------22222222---|
-33333333-33333333-3-|
-00000000-22222222-0-|
-00000000----------0-|
-22222222----------2-|
-33333333----------3-|
Verse
|-------------------------------------------------------
|-11111111-33333333-11111111-33333333-11111111-33333333-
|-00000000-00000000-00000000-00000000-00000000-00000000-
|-22222222-00000000-22222222-00000000-22222222-00000000-
|-33333333-22222222-33333333-22222222-33333333-22222222-
|----------33333333----------33333333----------33333333-
-------------------------------------------------------
-11111111-33333333-11111111-33333333-11111111-33333333-
-00000000-00000000-00000000-00000000-00000000-00000000-
-22222222-00000000-22222222-00000000-22222222-00000000-
-33333333-22222222-33333333-22222222-33333333-22222222-
----------33333333----------33333333----------33333333-
-------------------22222222----------|
-11111111-33333333-33333333-33333333-|
-00000000-00000000-22222222-00000000-|
-22222222-00000000----------00000000-|
-33333333-22222222----------22222222-|
----------33333333----------33333333-|
Chorus2
|-------------------------------------------------------
|-11111111-33333333-11111111-33333333-11111111-33333333-
|-00000000-00000000-00000000-00000000-00000000-00000000-
|-22222222-00000000-22222222-00000000-22222222-00000000-
|-33333333-22222222-33333333-22222222-33333333-22222222-
|----------33333333----------33333333----------33333333-
-------------------|
-11111111-33333333-|
-00000000-00000000-|
-22222222-00000000-|
-33333333-22222222-|
----------33333333-|
Outro
|-------------------------------------------------------
|-11111111-33333333-11111111-33333333-11111111-33333333-
|-00000000-00000000-00000000-00000000-00000000-00000000-
|-22222222-00000000-22222222-00000000-22222222-00000000-
|-33333333-22222222-33333333-22222222-33333333-22222222-
|----------33333333----------33333333----------33333333-
---------------------------|
-11111111-33333333-3-1-3-1-|
-00000000-00000000-0-0-0-0-|
-22222222-00000000-0-2-0-2-|
-33333333-22222222-2-3-2-3-|
----------33333333-3---3---|
Order
INTRO
Chorus(no guitar)
Verse
Chorus(no guitar)
Verse
Chorus(no guitar)
Chorus 2
Outro
Listen to song for correct timing...comments to e-mail




Ваше мнение



Капча