SONG: Blood and Whiskey
BAND: Dropkick Murphys
TABBER: Karsten Quinn
EMAIL: [email protected]
TUNING: regular
Intro/verse
E|---------------------------------------------------------
B|---------------------------------------------------------
G|---------------------------------------------------------
D|--------5-5-5-5-5-5-5-5-5--------------------------------
A|-3-3-3--3-3-3-3-3-3-3-3-3-----3-3-3--5-5-5-5-5-5-5-5-----
E|------------------------------1-1-1--3-3-3-3-3-3-3-3-----
Chorus
E|---------------------------------------------------------
B|---------------------------------------------------------
G|---------------------------------------------------------
D|---5--------5--------5-----------------------------------
A|---3--5--3--3--5--3--3-5--3---5-5-5-5-5-5-5-5------------
E|------3--1-----3--1----3--1---3-3-3-3-3-3-3-3------------
Solo x2 (solo might be kinda wrong mess around with it)
E|---------------------------------------------------------
B|--------------------------------8888---------------------
G|---8-7-555---8-7-555---8-7-555--8888---------------------
D|---------------------------------------------------------
A|---------------------------------------------------------
E|---------------------------------------------------------
this is my first tab please rate it




Ваше мнение



Капча