-------------------------------------------------------------------------------
AS ONE - Dropkick Murphys
-------------------------------------------------------------------------------
Tabbed by: Johnny Arson
Email: [email protected]
Tuning: Standard E Flat: Eb-Ab-Db-Gb-Bb-eb or:
Eb-G#-C#-F#-Bb-eb (same crap different smell)
AS ONE!!!
Intro - Guitar 1 (x1)
|-------------------------------------------------------------------|
|-------------------------------------------------------------------|
|---------9-9-9-----------9-9-9---11-11-11---11-11-9-9-9---11-11-11-|
|-9-9-9---9-9-9---6-6-6---9-9-9---11-11-11---11-11-9-9-9---11-11-11-|
|-9-9-9---7-7-7---6-6-6---7-7-7---9--9--9----9--9--7-7-7---9--9--9--|
|-7-7-7-----------4-4-4---------------------------------------------|
Intro part 2 - Both Guitars (x1)
|-------------------------------------------------------------------|
|-------------------------------------------------------------------|
|---------9-9-9-----------9-9-9---11-11-11---11-11-9-9-9---11-11-11-|
|-9-9-9---9-9-9---6-6-6---9-9-9---11-11-11---11-11-9-9-9---11-11-11-|
|-9-9-9---7-7-7---6-6-6---7-7-7---9--9--9----9--9--7-7-7---9--9--9--|
|-7-7-7-----------4-4-4---------------------------------------------|
[Listen for strumming pattern]
|--------------------------------------------------|
|--------------------------------------------------|
|-------9-----------9-----11---------9X9-----11----|
|-9-----9-----6-----9-----11---------9X9-----11----|
|-9-----7-----6-----7-----9----------7X7-----9-----|
|-7-----------4------------------------------------|
Verse - Both Guitars (x3)
[Listen for strumming pattern]
|---------------------------|
|---------------------------|
|-------9-----------9X9-----|
|-9-----9-----6-----9X9-----|
|-9-----7-----6-----7X7-----|
|-7-----------4-------|-----|
(Second Time add extra^chord)
End Verse - Both Guitars (x1)
[Listen for strumming pattern]
|--------------------------|
|--------------------------|
|-11---------9X9-----11----|
|-11---------9X9-----11----|
|-9----------7X7-----9-----|
|--------------------------|
Chorus - Both Guitars (x1)
[Listen for strumming pattern]
|----------------------------|
|----------------------------|
|-----------------9----------|
|-9X9-----6X6-----9----------|
|-9X9-----6X6-----7----------|
|-7X7-----4X4----------------|
End Chorus - Both Guitars (x1)
[Listen for strumming pattern]
|-----------------------------|
|-----------------------------|
|-----------------9-----11----|
|-9X9-----6X6-----9-----11----|
|-9X9-----6X6-----7-----9-----|
|-7X7-----4X4-----------------|
??? - Both Guitars (x1)
[Listen for strumming pattern]
|--------------------------------------------------|
|--------------------------------------------------|
|-------9-----------9-----11---------9X9-----11----|
|-9-----9-----6-----9-----11---------9X9-----11----|
|-9-----7-----6-----7-----9----------7X7-----9-----|
|-7-----------4------------------------------------|
Verse - Both Guitars (x3)
[Listen for strumming pattern]
|---------------------------|
|---------------------------|
|-------9-----------9X9-----|
|-9-----9-----6-----9X9-----|
|-9-----7-----6-----7X7-----|
|-7-----------4-------|-----|
(Second Time add extra^chord)
End Verse - Both Guitars (x1)
[Listen for strumming pattern]
|--------------------------|
|--------------------------|
|-11---------9X9-----11----|
|-11---------9X9-----11----|
|-9----------7X7-----9-----|
|--------------------------|
Chorus - Both Guitars (x1)
[Listen for strumming pattern]
|----------------------------|
|----------------------------|
|-----------------9----------|
|-9X9-----6X6-----9----------|
|-9X9-----6X6-----7----------|
|-7X7-----4X4----------------|
End Chorus - Both Guitars (x1)
[Listen for strumming pattern]
|-----------------------------|
|-----------------------------|
|-----------------9-----11----|
|-9X9-----6X6-----9-----11----|
|-9X9-----6X6-----7-----9-----|
|-7X7-----4X4-----------------|
??? - Both Guitars (x1)
[Listen for strumming pattern]
|-------------------------------------------------------------------|
|-------------------------------------------------------------------|
|---------9-9-9-----------9-9-9---11-11-11---11-11-9-9-9---11-11-11-|
|-9-9-9---9-9-9---6-6-6---9-9-9---11-11-11---11-11-9-9-9---11-11-11-|
|-9-9-9---7-7-7---6-6-6---7-7-7---9--9--9----9--9--7-7-7---9--9--9--|
|-7-7-7-----------4-4-4---------------------------------------------|
Solo - Guitar 1
|---------------------------------------------------------------------------|
|--------7--------------4b5b4--------------------------4h5p4----------------|
|-6b8-------6b8b6-4---4-------6-4-4--4----------4---4--------6-4------------|
|-------------------6------------------6-4--4-6---6--------------6-4X4-6----|
|---------------------------------------------------------------------------|
|---------------------------------------------------------------------------|
|-------------------------------------------------------------------------|
|-------------------7--------/-------14-----------------------------------|
|----------4-4--6b8----8-6-4-/-13b15----13b15b13-11-11b13-11--------------|
|-4--6-4-6---------------------------------------------------11h13-11-----|
|-------------------------------------------------------------------------|
|-------------------------------------------------------------------------|
Chorus - Both Guitars (x1)
[Listen for strumming pattern]
|----------------------------|
|----------------------------|
|-----------------9----------|
|-9X9-----6X6-----9----------|
|-9X9-----6X6-----7----------|
|-7X7-----4X4----------------|
End Chorus - Both Guitars (x1)
[Listen for strumming pattern]
|-----------------------------|
|-----------------------------|
|-----------------9-----11----|
|-9X9-----6X6-----9-----11----|
|-9X9-----6X6-----7-----9-----|
|-7X7-----4X4-----------------|
Outro - Both Guitars (x1)
|--------------------------------------------------------------|
|--------------------------------------------------------------|
|-9------------------------------------------------------------|
|-9---9-9-9---6-6-6---4-4-4---4-4-2---2--2--2---2-2-6---4-4-4--|
|-7---9-9-9---6-6-6---4-4-4---4-4-2---2--2--2---2-2-6---4-4-4--|
|-----7-7-7---4-4-4---2-2-2---2-2-0---0--0--0---0-0-4---2-2-2--|
|-------------------------------------------------------------------------|
|-------------------------------------------------------------------------|
|-------------------------------------------------------------------------|
|-2-2-2---2-2-6---2-2-2---2-2-9---2-2-2---2--2--2---4-4-4-4-4-4-4---9-----|
|-2-2-2---2-2-6---2-2-2---2-2-9---2-2-2---2--2--2---4-4-4-4-4-4-4---9-----|
|-0-0-0---0-0-4---0-0-0---0-0-7---0-0-0---0--0--0---2-2-2-2-2-2-2---7-----|
Ends On
|---|
|---|
|---|
|-9-|
|-9-|
|-7-|
| / slide up
| slide down
| h hammer-on
| p pull-off
| ~ vibrato
| + harmonic
| x Mute note
ORDER:
Intro x1
Intro Part 2 x1
Verse x3
End Verse x1
Chorus x1
End Chorus x1
??? x1
Verse x3
End Verse x1
Chorus x1
End Chorus x1
??? x1
Solo
Chorus x1
End Chorus x1
Outro x1
Ends On x1
===============================================================================




Ваше мнение



Капча