ok....i had to fix what was already here.....
intro
e---------------------------------------------------------------------------|
B---------------------------------------------------------------------------|
G---------------------------------------------------------------------------|
D-7-(7777777777777777)------------------------------------------------------|
A-7-(7777777777777777)------------------------------------------------------|
E-5-(5555555555555555)------------------------------------------------------|
verse
e---------------------------------------------------------------------------B--|
G----------66666666-4-22222222---------------------66666666-9999999999999999---|
D-77777777-66666666-4-22222222-4-22222222-77777777-66666666-9999999999999999---|
A-77777777-44444444-2-00000000-4-22222222-77777777-44444444-7777777777777777---|
E-55555555---------------------2-00000000-55555555-----------------------------|
e---------------------------------------------------------------------------|
B---------------------------------------------------------------------------|
G-66666666-9999999999999999-4-22222222---------------------66666666-4-------|
D-66666666-9999999999999999-4-22222222-4-22222222-77777777-66666666-4-------|
A-44444444-7777777777777777-2-00000000-4-22222222-77777777-44444444-2-------|
E--------------------------------------2-00000000-55555555------------------|
bridge
e---------------------------------------------------------|-----------------|
B------------------------------play this part twice-------|-----------------|
G-22222222------------------------------------------------|-----------------|
D-22222222---------44~5555555555555555-44-7777777777777777|--44-5555555-----|
A-00000000---------44~5555555555555555-44-7777777777777777|--44-5555555-----|
E------------------22~3333333333333333-22-5555555555555555|--22-3333333-----|
outro>let ring
e----------------------------------------------------------------------------|
B----------------------------------------------------------------------------|
G------------------------------------------6~---------4-2~~~~~~~~~~~~~~~~~~~-|
D-22222222-------------------7~------------6~---------4-2~~~~~~~~~~~~~~~~~~~-|
A-22222222-------------------7~------------4~---------2-0~~~~~~~~~~~~~~~~~~~-|
E-00000000-------------------5~----------------------------------------------|
awesome song with some cool bagpipe riffs.......really easy
rock on!!




Ваше мнение



Капча