----------------------------------------------------------------------------
3RD MAN IN - Dropkick Murphys
----------------------------------------------------------------------------

By:Antwizzle [email protected]

e|--------------------------------------------------|
B|--------------------------------------------------|
G|---10-10--9-9--7-7--5-5--10-10--9-9--7-7--5-5-----|
D|---10-10--9-9--7-7--5-5--10-10--9-9--7-7--5-5--5--|
A|----8--8--7-7--5-5--3-3---8--8--7-7--5-5--3-3--5--|
E|-----------------------------------------------3--|

Chorus
e|-------------------------------------------------------------------|
B|-------------------------------------------------------------------|
G|------------------------------------------5-5-5-5------------------|
D|--5-5-5-5-5-5-5-5-7-7-7-7-7-7-7-7-3-3-3-3-5-5-5-5-5-5-5-5-5-5-5-5--|
A|--5-5-5-5-5-5-5-5-7-7-7-7-7-7-7-7-3-3-3-3-3-3-3-3-5-5-5-5-5-5-5-5--|
E|--3-3-3-3-3-3-3-3-5-5-5-5-5-5-5-5-1-1-1-1---------3-3-3-3-3-3-3-3--|

e|-------------------------------------------------------------------|
B|-------------------------------------------------------------------|
G|------------------------------------------5-5-5-5------------------|
D|--5-5-5-5-5-5-5-5-7-7-7-7-7-7-7-7-3-3-3-3-5-5-5-5-5--3--5----------|
A|--5-5-5-5-5-5-5-5-7-7-7-7-7-7-7-7-3-3-3-3-3-3-3-3-5--3--5----------|
E|--3-3-3-3-3-3-3-3-5-5-5-5-5-5-5-5-1-1-1-1---------3--1--3----------|

Verse
e|-------------------------------------------------------------------|
B|-------------------------------------------------------------------|
G|-----------------5-5-5-5-7-7-7-7-----------------------------------|
D|-3-3-3-3-5-5-5-5-5-5-5-5-7-7-7-7-----------------------------------|
A|-3-3-3-3-5-5-5-5-3-3-3-3-5-5-5-5-----------------------------------|
E|-1-1-1-1-3-3-3-3---------------------------------------------------|




Ваше мнение



Капча