Tabbed by: Jarrod Oglan ([email protected])
Song: Ytsejam
Band: Dream Theater
Album: When Dream and Day Unite
Tabbed for the Bass Tab Archive Tabbing Army

Fig. 1:
|-4--------2-|
|-2--2--2--1-|
|----1--0----|
|------------|

Fig. 2:
|------------------------------------------------------------------------------------------------------------|
|-12/1112-0-14/1214-0-15/1415-0-15/1715-15/1415-14/1214-12/1112--20/1919-19/1719-17/1517-14/1314--|
|------------------------------------------------------------------------------------------------------------|
|------------------------------------------------------------------------------------------------------------|

Fig. 3:
|---------------------------------------------------1-------------1-2-4-5-|
|-------------------------------0-2-3-2-2-3-0-2-2-3---2-2-3-0-2-3---------|
|-0-0-1---0-0-1-4-0-0-1---0-1-4-------------------------------------------|
|-------3---------------3-------------------------------------------------|

Fig. 4:
|------------------------------------------------------10/910-9/89-7/67-|
|-7/67-8/78-7/67-12/1112-11/811-8/78-7/67-5/45---------------------|
|--------------------------------------------------------------------------|
|--------------------------------------------------------------------------|

|-----------------------------------------------------------------------|
|---------------------------------------------------10/910-9/89-7/67-|
|-7/67-8/78-11/811-12/1112/-11/811-8/78-7/67---------------------|
|-----------------------------------------------------------------------|

Fig. 5:
|---------------2/3--2-0----------------1/7-5---------|
|-0-2-3-------0----------3-0-2-3------0-------8-7-5-3-|
|---------0-3---------------------0-3-----------------|
|-------3------------------------3--------------------|

Fig. 6:
|------------------------------------------15/1415-14/1214-12/1012------------------------------------|
|-0-2-3-------0-8--7--5--3---0-2-3-------0----------------------------15/1415-14/1214-12/1112-11/911-|
|---------0-3--------------3---------0-3-----------------------------------------------------------------|
|-------3--------------------------3---------------------------------------------------------------------|

Fig. 7:
|---------------------------------------2/32---|
|-----------------------------3333-2222-------3-|
|-0--1-0--1111-3333-5555-4444-------------------|
|-----------------------------------------------|

Fig. 8:Keyboard Solo
|-----------2/32--------------2/32---|
|-----------------3-------1111-------3-|
|-0000-1111----------0000--------------|
|--------------------------------------|

Fig. 9:Guitar Solo
|---------------------------|
|---------------------------|
|----------------5555-------|
|-3333-4444-3333------5-4-3-|

Fig. 10:Bass Solo, Complete Improve...to hard to figure out right now

Fig. 11:Drum Solo..No other instruments

Fig. 12
|-----------5----------------------5-------------|
|-----5-7-6------------------5-7-6---------7-6~7-|
|-5-8---------8-5-4-4--4-5-8---------8-5-8-------|
|------------------------------------------------|

Fig. 13:
|----------------------------------------5-|
|------------------8--6------------5-7-6---|
|-7777-5555-7-8888-------3--1--5-8---------|
|------------------------------------------|

Fig. 14:
|-----------------------------|
|------------------8--6-------|
|-7777-5555-7-8888-------3--1-|
|-----------------------------|

Fig. 15:
|-------------------------------|
|-------------------------------|
|-----------------------777-555-|
|-0000-0000-0000-0000-00--------|

Fig. 16:
|---------------------------------------------|
|-14141414-161616-171717-191919-191919-171717-|
|---------------------------------------------|
|---------------------------------------------|

Fig. 17:
|--------------------|
|----------------8-6-|
|-7777-5555-8888-----|
|--------------------|

Fig. 18:
|---------------------|
|---------------------|
|-7--7--7-5-7--7--7-8-|
|---------------------|

Song Structure:
Fig. 1 x 1
Fig. 2 x 6
Fig. 3 x 3
Fig. 4 x 2
Fig. 2 x 2--end this on open d string and hold
Fig. 5 x 2
Fig. 6 x 1
Fig. 7 x 4
Fig. 8 x 10
Fig. 9 x 10
Fig. 10 x 1
Fig. 11 x 1
Fig. 12 x 2
Fig. 13 x 1
Fig. 14 x 1
Fig. 15 x 1
Fig. 16 x 1
Fig. 17 x 1
Fig. 16 x 1
Fig. 18 x 1
Fig. 2 x 2
Fig. 19 x 1
Fig. 1 x 1
Fig. 12 x 1





Ваше мнение



Капча