Tabbed by: Pete
Performed by: Dream Theater

Tab Legend:
^ = bend up
* = pinch harmonic
h = hammer on
p = pull off
-PM- = palm mute

INTRO

e/----------------------------|-----------------------------------------
B/----------------------------|-----------------------------------------
G/----------------------------|-----------------------------------------
D/----------------------------|-----------------------------------------
A/----------------------------|--------------------4------3-------------
E/-0--2--2-2-2--0-2-0-2-0-2-5-|--0---2--2-2-2--0-2---0--2---4-----------
h h

PRE-CHORUS
h
e/--------------------------0---2---------------------------------------
B/-----------------5-5-5--0---------------------------------------------
G/-4---6--6-6-6-6--4-4-4------------------------------------------------
D/-4---4--4-4-4-4-------------------------------------------------------
A/----------------------------------------------------------------------
E/----------------------------------------------------------------------
h

CHORUS

e/-----4--------2---------------0---------------------------------------
B/-------4--------5-----0---------0-------------------------------------
G/-----------4------------3---------------------------------------------
D/--6--------2-------4-------2------------------------------------------
A/--6--------x-------4-------2------------------------------------------
E/--4--------4-------2-------0------------------------------------------

solo

e/----------------------------------------------------------------------
B/----------------------------------------------------------------------
G/-4---6---4-4-4-/-0--x-x-x-x-x-x-x-x-x---4-4-4--4---6--6-6-6-----------
D/-4---4---6-6-6-/-0--x-x-x-x-x-x-x-x-x---4-4-4--4---4--4-4-4-----------
A/----------------------------------------------------------------------
E/----------------------------------------------------------------------
h h
e/----------------------------------------------------------------------
B/----------------------------------------------------------------------
G/-x-x-x-x-x-x-x-x-x-x--6-/-0--x--6--4-4-4--4---6---6-6----4---6--6-----
D/----------------------4-/-0--x--4--4-4-4--4---4---4-4----4---4--4-----
A/----------------------------------------------------------------------
E/----------------------------------------------------------------------
h h

e/-------------6-/-0--7--5--4-------------------------------------------
B/-------5-5---5-/-0--7--5--4-------------------------------------------
G/-4--4--4-4---6-/-0-----------4^*----2--------4---6--------------------
D/-4--4----------------------------------4--2--4---4--------------------
A/----------------------------------------------------------------------
E/----------------------------------------------------------------------
p h

e/----------------------------------------------------------------------
B/--16^---17-16-15-14-------------17-16-15-14---------------------------
G/--------------------17-16-15-14---------------------------------------
D/--------------------------------------------16-15-14-15-16------------
A/----------------------------------------------------------------------
E/----------------------------------------------------------------------

e/----------------------------------------------------------------------
B/----------------------------------------------------------------------
G/----------------------------------------------------------------------
D/-16-16-15-16-16-15-16-16-15-------------------------------------------
A/----------------------------------------------------------------------
E/----------------------------------------------------------------------
|-----------PM-------------|





Ваше мнение



Капча