You Not Me
Author - Ardian Ibrahimaj
From: [email protected] (Ardian Ibrahimaj)
Song: You Not Me
Artist: Dream Theater
Intro 2x
E---||----------------------------------------------------||------------
B---||----------------------------------------------------||------------
G---||*--4:----------------------------------------------*||------------
D---||*--4:----------------------------------------------*||------------
A---||----------------------------------------------------||------------
E---||-------0h2--2--2~~~--0--2~~~--0--2~~~--0--2--5~~~---||--0h2--2----

verse (bass guitar)
E---------------------------------------------|-------------------------
B---------------------------------------------|-------------------------
G---------------------------------------------|-------------------------
D---------------------------------------------|-------------------------
A------------------------------4--------3-----|-------------------------
E---2--2~~~--0--2~~~--0--2~~~-----0--2-----2--|-------------------------


E------------------------------------------------||---------------------
B------------------------------------------------||---------------------
G------------------------------------------------||*--4h6--6--6--6------
D------------------------------------------------||*--4----4--4--4------
A------------------------------------------------||---------------------
E------------------------------------------------||---------------------

2x chorus
E------------------0h2---||--------------------||--------|-----4--------
B------5--5--5--0--------||--------------------||--------|--------4-----
G---6--4--4--4----------*||--4h6--6--6--6-----||-----3--|--------------
D---4-------------------*||--4----4--4--4--4--4||--6-----|--6-----------
A------------------------||--------------------||--------|--6-----------
E------------------------||--------------------||--------|--4-----------


E------------2-----------------------------0-----------|-----4-----4----
B---------------5-----------0-----------------0--------|--------4-------
G---------4--------------------3-----------------------|----------------
D---------2--------------4--------------2--------------|--6-------------
A------------------------4--------------2--------------|--6-------------
E---------4--------------2--------------0-----------2--|--4-------------


E---------------2-----2-----6--------------0-----------------|----------
B------------------2-----------7--------------0--------------|----------
G------------4-----------------------------------------------|----------
D------------4-----------8--------------9--------------------|--6-------
A------------2-----------6--------------7-----------7--------|--6-------
E---------------------------------------0--------------0--2--|--4-------


E------------------------------------------------------------||
B------------------------------------------------------------||
G------------------------------------------------------------||
D---4--------2--------4--------6--------4--------2-----------||
A---4--------2--------4--------6--------4--------2-----------||
E---2--------0--------2--------4--------2--------0-----------||

3x
E--||-------------------------||
B--||-------------------------||
G--||------------------------*||
D--||---------------------2--*||
A--||---------------------2---||
E--||-32--32--32--32--0---||

verse...hear the record...there is as good as nothing new...

guitar solo
E---------||--------------------------------------|---------------------
B---------||--------------------------------------|---------------------
G---------||--4--6~~~--x--x--x--x--x--x--x--x--x--|--2--2--4--4---------
D---------||--4--4~~~--x--x--x--x--x--x--x--x--x--|--2--2--2--2---------
A---------||--------------------------------------|---------------------
E---------||--------------------------------------|---------------------


E------------------------------------------------------|----------------
B------------------------------------------------------|----------------
G---4h6--6--6------x--x--x--x--x--x--x--x--x--x-------|--2--2----------
D---4----4--4------------------------------------------|--2--2--2--2----
A------------------------------------------------------|----------------
E-----------------------------------------------------|----------------


E----------------------------------6----7--5--4-------------------------
B-------------------------5--5-----5---7--5--5------p------------------
G---------4h6--6--6---4--4--4--x--6----------4--4^--4--2---------------
D---------4----4--4----4-----------------------------------4--2---------
A-----------------------------------------------------------------------
E-----------------------------------------------------------------------


E--------------|---------14---------------------------------------------
B--------------|-----16^----17-16-15-14---------------------------------
G------4h6--6--|------------------------17-16-15-14---------------------
D------4----4--|------------------------------------16-15-14-15-16------
A--------------|--------------------------------------------------------
E--------------|--------------------------------------------------------



E-------------------------------
B-------------------------------
G---------14-16-14--------------
D-------------------16-15-------
A-------------------------------
E-------------------------------

P.M.............. 3x
E--------------------------------------------||-----------------------||
B---------------------14--------------5-----||-----------------------||
G---------------------14-----------4--4-----||*--4-----2------------*||
D---14-15---------------------------4--------||*-----------4-----2---*||
A--------------------------------------------||-----------------------||
E--------------------------------------------||-----------------------||


chorus...
Comments/Corrections to
Published by PROG OR DIE 1997.
--------------------------------------------------------------------------
| PROG OR DIE - The Progressive Music Page |
| |
| DREAM THEATER - FATES WARNING - ROYAL HUNT - SHADOW GALLERY |
| |
| http://lionel.kr.fh-niederrhein.de/~ashouria/index.htm |
| OR |
| http://www.geocities.com/SunsetStrip/Venue/1748/ |
| |
| by Arash Ashouriha |
| |
| [email protected] |
--------------------------------------------------------------------------





Ваше мнение



Капча