Dream Theater - "The Silent Man"
(from "Awake")

Подбор: DiAnno ([email protected])
Играется на 12_ти струнной гитаре с нормальным строем.
A question well served,
||---------3----------3---------2---|------------2-------------2---x---x----|
||---------3----------3---------3---|------------3-------------3---x---x----|
||o--------0----------0---------2---|----2-------2---------2---2---x---x----|
||o--------0----------0----0----4---|----4-------4---------2---0---x---x----|
||-------------------------0----5---|------------5---------0-------x---x----|
||----3----------3------------------|---------------------------------------|
"Is silence like a fever?"
|--0------------0------------0------|-------------------1---1---x---0-------|
|--0------------0------0---------3--|--------3----x--x--1---1---x---0-------|
|--0------------0------0---------0--|--------0----x--x--0---0---x---0-------|
|--2------2------------2---------2--|--------2----x--x--3---3---x---0-------|
|--4------4----------------------3--|--------3----x--x--3---3---x-----------|
|-----------------------------------|---3-----------------------------------|
"A voice never heard?"
|---------3----0----------------2---|---------------------------------------|
|---------3----3----------------3---|--------3------------------3-----------|
|---------0----0----------------2---|--------2------------------0-----------|
|---------0----0-----------0----0---|--------0-------------4----4-----------|
|---------x-----------0----2----0---|---0--------0----5---------5-----------|
|--3------3-------------------------|---------------------------------------|
"Or a message with no receiver?"
|--0---------0-----0----0-----------|---------------------1--1----x----0----|
|--0---------0-----0----0-----3-----|--------3----x----x--1--1----x----0----|
|--0---------0-----0----0-----0-----|--------0----x----x--0--0----x----0----|
|--2----2---------------------2-----|--------2----x----x--3--3----x----0----|
|--4----4---------------------3-----|--------3----x----x--3--3----x---------|
|-----------------------------------|--3------------------------------------|

Pray they won´t ask
|--0---------0----------0----0---x--|--0----------0----------0--------------|
|--0---------0----------0----0---x--|--1----------1----------1---1----1-----|
|--0---------0----------0----0---x--|--0----------0----------0---0----0-----|
|--2---------4----------2----2------|--2----2----------2-----2---2----2-----|
|--2---------2----------------------|--0----0----------0-----0--------------|
|--0----0----------0----------------|---------------------------------------|
Behind the stained glass
|--0-----------------------0--x--x--|--0-------0---------0---0---0----------|
|--1/3---------3-----------3--x--x--|--0-------0---------0---0---0----------|
|--0-----------0-----------0--x--x--|--0-------0---------0---0--------------|
|--2/4-----4---4-----------4--x--x--|--2-------4---------4------------------|
|--0-------0---------0--------------|--2-------2---------2------------------|
|-----------------------------------|--0---0--------0-----------------------|
There´s always one more mask
|-----------------------------------|--------------------------------------||
|--3---------3---------3----x----x--|---7----------------7-----------------||
|--0---------0---------0----x----x--|---7----------------7----------------o||
|--4---------4---------4----x----x--|---7----------------7----------------o||
|--3----3---------3----3----x----x--|---x----------------x-----------------||
|-----------------------------------|---8------8---------8-----------------||
Has man been a victim
of his woman, of his father?
if he elects not to bother,
will he suffocate their faith?

Desperate to fall
Behind the Great Wall
That separates us all
Припев:
When there is reason, Tonight I´m awake
let ring...(E) (F#m) (A) (H)
|-------0-----0------|--------------|-------0--------0----|-----0----------|
|-----0-----0-----0--|--(0)---------|-----0--------0------|-----0----------|
|--1-----1-----1-----|--------------|---6--------6--------|-----8----------|
|--------------------|--------------|-7--------9----------|-----9----------|
|--------------------|--------------|---------------------|----------------|
|--------------------|--------------|---------------------|----------------|
When there´s no answer. Arrive the silent man.
(E) (F#m) (A) (H) (E)
|------0-----0------|------------|--------0--------0-|-(0)~----------------|
|----0-----0-----0--|--(0)-------|------0--------0---|---------------------|
|--1-----1-----4----|------------|---6---------8-----|---------------------|
|-------------------|------------|-7---------9-------|---------------------|
|-------------------|------------|-------------------|---------------------|
|-------------------|------------|-------------------|---------------------|
If there is balance tonight he´s awake
(E) (F#m) (A) (H)
|-----0-----0------|-----0-----0---0-|------0------0----0-|-----0----0---0-|
|---0-----0-----0--|---0-----0-----0-|----0------0--------|---0----0-------|
|-1-----1-----1----|-2-----2----2----|--6------6------6---|-8----8-----8---|
|------------------|-----------------|--------------------|----------------|
|------------------|-----------------|--------------------|----------------|
|------------------|-----------------|--------------------|----------------|
If they have to suffer there lies the silent man.
(E) (F#m) (A) (H) (E)
|-----0-----0-----|-----0----0---0-|-------0--------0-|(0)~----------------|
|---0-----0-----0-|---0----0-------|-----0--------0---|--------------------|
|-1-----2-----4---|-2----2-----2---|---6--------8-----|--------------------|
|-----------------|----------------|-7--------9-------|--------------------|
|-----------------|----------------|------------------|--------------------|
|-----------------|----------------|------------------|--------------------|

|--2----x----0----2---x---x---0--|--1---1---x--x--1----0---------7--7------|
|--3----x----3----3---x---x---3--|--3---3---x--x--3----3---3--0--8--8------|
|--2----x----2----2---x---x---3--|--3---3---x--x--3----3---3--0--7--7------|
|--0----0----0----------------0--|--0---0---------0----0---0-----0---------|
|--0----0------------------------|-----------------------------------------|
|--------------------------------|-----------------------------------------|
|--7--x---x------5--5--5---x--x----3--|--3--x---x--0--0---0----|-0--0--x---|
|--8--x---x------7--7--7---x--x----5--|--0--0---0--0--0---0----|-3--3--x---|
|--7--x---x------7--7--7---x--x----5--|--5--x---x--5--5---4----|-4--4--x---|
|--0----------0--0-----0-----------0--|--0---------5--5---5----|-5--5--x---|
|-------------0-----------------------|--0---------0--0---0----|----0------|
|-------------------------------------|------------------------|-----------|
|--2------------------------------1-----|---1--------0----0--0--0--7--7----|
|--3------------------------------1-----|---1--x--x--1----1--1--1--8--8----|
|--2------------------------------3-----|---3--x--x--0----0--0--0--7--7----|
|--0------------------------------3-----|---3--x--x--3----2--2-----0-------|
|--x-------------------------0----1-----|---1--x--x--3----3--3-------------|
|--2------2---0---2---3-----------------|----------------------------------|
|--7--x---x------5--5--5---x--x----3--|--3--x---x--0--0---0----|-0--0--x---|
|--8--x---x------7--7--7---x--x----5--|--0--0---0--0--0---0----|-3--3--x---|
|--7--x---x------7--7--7---x--x----5--|--5--x---x--5--5---4----|-4--4--x---|
|--0----------0--0-----0-----------0--|--0---------5--5---5----|-5--5--x---|
|-------------0-----------------------|--0---------0--0---0----|----0------|
|-------------------------------------|------------------------|-----------|
Соло:
|---------------------------------|----------------------------------------|
|----------------8--7h8p7---------|---------10----12----10-----------------|
|--------7--9---------------9--7~-|-7--9/11----11----11----119p7---7h9----|
|-7--9----------------------------|-------------------------------9--------|
|---------------------------------|----------------------------------------|
|---------------------------------|----------------------------------------|

|-------------------9--7h9p7--5-----|--------------------------------------|
|---------------------------------8-|-----6-----6--------------------------|
|--(9)~----6------------------------|-----5h7---5--------------------------|
|---------------7-------------------|-------------------75p32------------|
|-----------------------------------|--------------------------------------|
|-----------------------------------|--------------------------------------|


Sin without deceivers, a God with no believers
|----------------------|----------------------|----------------------------|
|----------------------|----------1-----------|------3-------------7-------|
|-----------0----------|-------0--------0-----|---------0-------------0----|
|--------4------4------|----2-------------2---|-2/4------------4/7-------7-|
|-----2-----------2----|-0----------0-------0-|------------0---------------|
|--0----------------0--|----------------------|----------------------------|
I could sail by on the winds
|----------------------------------|----------0----------------------------|
|---------8-------75---------3----|----------3---3------3-----------------|
|----------------------------------|-------0------0------0-----------------|
|-----7/9---97---75---2/4--------|----4----------------4-----------------|
|----------------------------------|-3-------------------------------------|
|--0-------------------------------|---------------------------------------|
of silence and maybe they won´t notice But this
|---------------------x--x--|---------0-------0--x--x-|(0)-----0-------0---|
|-----------7-----7---x--x--|---------0-------0--x--x-|(0)-----0-------0---|
|--------7--7-----7---x--x--|---------6-------6-------|(0)-----0-------0---|
|-----7-----7-----7---------|-------------------------|-x------2-------2---|
|---------------------------|-9-----------9-----------|-x------------------|
|--8--------------8---------|-7---7-------7-----------|-0--0------0--------|
time, I think it´d be better if I swim.
|----------------------------|---0h2-----------|---(2)---------------------|
|--3-----------3----------3--|---3-------------|---(3)---------------------|
|--0-----------0----------0--|---2-------------|---(2)---------------------|
|--2-----------2----------2--|---0-------------|---(0)---------------------|
|--3-----3----------3--------|-----------------|---------------------------|
|----------------------------|-----------------|---------------------------|
When there is reason
Tonight I´m Awake
When there´s no answer
Arrive the Silent Man
If there´s balance
Tonight he´s Awake
If they have to suffer
There lies the Silent Man
|--0---0--0---0----0--0--0--0---|-------------------0--0---0--0------------|
|--0---0--0---0----0--0--0--0---|-10--10--10--------0--0---0--0------------|
|--6---6--6---6----8--8--8--8---|--9---9---9--------8--8---8--8------------|
|--7---7--7---7----9--9--9--9---|--7---7---7--------7--7---7--7------------|
|--7---7------7----9--9-----9---|--x---x---x--------9--9---9--9------------|
|-------------------------------|--9---9---9--------7--7---7--7------------|
There lies the Silent Man
|--4----x---x----------------------------|---0-----------(0)---------------|
|--5----x---x---4----x----x----2----0----|---0-----------(0)---------------|
|--6----x---x---4----x----x----2----2----|---1-----------(1)---------------|
|--6----x---x---4----x----x----2----2----|---2-----------(2)---------------|
|--4------------2----x----x----0----x----|---2-----------(2)---------------|
|-----------------------------------2----|---0-----------(0)---------------|
===========================================================================
h = хамер
p = пул
/ = слайд
x = струна глушится
~ = вибрато
===========================================================================
P.S. На этот таб я посратил много времени!
Пожалуйта не приставайте с глупыми вопросами...ОК?:-)
***************************************************************************





Ваше мнение



Капча