Band- Dream Theter
Song- The Glass prison
Transcribed by Jason Clary
I only have the intro down so far. so here it is
|---------------------------------------|
|--0---3-0-2-0----0----0-------0------0-|
|--------------------0---0--1----1--2---|
|---------------------------------------|
|---------------------------------------|
|---------------------------------------|
|---------------------------------------|
|--0---3-0-2-0----0---0-------0----0----|
|-------------------0---0--1----1-------|
|---------------------------------------|
|---------------------------------------|
|---------------------------------------|





Ваше мнение



Капча