Artist: Dream Theater
Track: Stream Of Consciousness
Album: Train Of Thought
Tab: Kevin Mc Donald([email protected])
Tune Down Half Step (Bb,Eb,Ab,Db,Gb)
The Timing isn't tabbed but just listen to the cd to get it.
(0:20)
Gb--------------------------------------------------------
Db--------------------------------------------------------
Ab--------------------------------------------------------
Eb-------------------------/6----5---3--1--0---5----------
Bb-3----1----3----1---------------------------------------
(0:39)
Gb--------------------------------------------------------
Db--------------------------------------------------------
Ab--------------------------------------------------------
Eb----------------------------------------------6666666666
Bb-3333333333-1111111111-333333333-11111111---------------

---------------------------
---------------------------
---------------------------X2
-5555555---333--111--00-55-
---------------------------
(1:17)
Gb----------------------------------
Db------------7-5-------------------
Ab-5555555/7------765--33333333-----X2
Eb----------------------------------
Bb----------------------------------
(1:27)
Gb-------------------------------------------------------
Db-------------------------------------------------------
Ab-------------------------------------------------------
Eb--555555-6666666-888888888-------------55555555-666666-
Bb---------------------------88888888--------------------
-----------------------------
-----------------------------
-------------------000000000-
-1111111 000000000-----------
-----------------------------
(1:44)
Gb---------------------------------------------------------
Db---------------------------------------------------------
Ab---------------------------------------------------------
Eb----------------------------------------------6666666666-
Bb-3333333333-1111111111-333333333-11111111----------------
---------------------------
---------------------------
---------------------------X1
-5555555---333--111--00-55-
---------------------------
(2:03)
Gb-------------------------------------------------
Db-------------------------------------------------
Ab-----------------------------4---5---------------
Eb-0---1----3---5-----0---1--------------0----1----
Bb-------------------------------------------------
-----------------------------
-----------------/5----------
---------------------7-8--5--
3----5----0--1---------------
-----------------------------

(2:18)
Gb-------------------------------------------------------------------------
Db--------------------0-2-3-2-0------------------------22/---55------------
Ab-------------0-2-4-------------1-0-----------------------------77-88-5---
Eb--0-1/---6-5------------------------3-1-0---1/---6-5---------------------
Bb-------------------------------------------------------------------------
------------------------------------------------------------------------
--------------------0-2-3-2-0------------------------------0-2-3-0------
--------------0-2-4-----------1-0--------------------0-2-4--------------
-0-1/----6-5-----------------------3-1-0---1/---6-5---------------------
------------------------------------------------------------------------
(2:48)
Gb---------------------------------------------------
Db--------------------------7------------------------
Ab-----------0--1--4--5--7--------------0--1--3--5---
Eb--0--1--3-------------------0--1--3----------------
Bb---------------------------------------------------
(3:04)
i've tabbed the timing for this part only.
Gb--------------------------------0-2---------------------------
Db------------------------0-2-3-4-------------------------------
Ab--------------------------------------------------------------
Eb--5--555-5555-55-555-5---------------5-555-5555----55--555--5-
Bb--------------------------------------------------------------
------------0-2-
----0-2-3-4-----
----------------
----------------
----------------
(3:19) (3:27) end part x2
Gb---------------------------------------------------------------------
Db------------------------------------77-5-7-8-0-1-2-0-2-3-0-2-5-3-2-0-
Ab---------------------------------------------------------------------
Eb--5-5-5-5-5-5-5-5-5-5-5-5-5-5-5-5------------------------------------
Bb---------------------------------------------------------------------
(3:34) to (3:50) i could't get this bit.
i think these are the root notes, played
four times.
Gb---------------
Db---------------
Ab---------------
Eb---5--3--------
Bb---------5--2--
(3:50,guitar solo)The timing is hard here but the riff is right.
Gb--------------------------------
Db--------------------------------
Ab-------------------------------- (played 4 times, play
Eb--55-0-33-11-0------------------ open Eb the last time round)
Bb--------------55-33-11-00-0-555-
(4:12)
Gb------------------0-2-3-2-0----------------------------33-00-22-----
Db------------0-2-3-----------3-2-0------------------0-0----------3---
Ab-0-1-/--5-4------------------------3-1-0-1-/--5-4-------------------
Eb--------------------------------------------------------------------
Bb--------------------------------------------------------------------
--------------------0-2-3-2-0------------------------------------
--------------0-2-3------------3-2-0------------------00-2-3-2-0-
-0-1-/--5--4--------------------------3-1-0-1/--5-4--------------
-----------------------------------------------------------------
-----------------------------------------------------------------
(4:28)
Gb--------------------------------
Db--------------------------------
Ab-------------------------------- (played 4 times, play
Eb--55-0-33-11-0------------------ open Eb the last time round)
Bb--------------55-33-11-00-0-555-

(4:50)Same as the 4:12 riff only the very end is slightly different.
Gb------------------0-2-3-2-0----------------------------33-00-22-----
Db------------0-2-3-----------3-2-0------------------0-0----------3---
Ab-0-1-/--5-4------------------------3-1-0-1-/--5-4-------------------
Eb--------------------------------------------------------------------
Bb--------------------------------------------------------------------
--------------------0-2-3-2-0------------------------------------------
--------------0-2-3------------3-2-0------------------00-2H3-2-3-2-0---
-0-1-/--5--4--------------------------3-1-0-1/--5-4------------------3-
-----------------------------------------------------------------------
-----------------------------------------------------------------------
(5:06)
Gb----------------------------------------------------------------------
Db----------------------------------------------------------------------
Ab----------------------------------------------------------------------
Eb--5-5-55--1-1-11/--5-5-55--1-1-11/--8-8-88--4-4-44/--8-8-88-4-4-44
Bb----------------------------------------------------------------------
(5:22)Distorted
Gb--------------------------------------------------------------------
Db--------------------------------------------------------------------
Ab--------------------------------------------------4-----------2-3-4-
Eb------1-3-4--------1-3-4-------1-3-4-------1-3-4-----0-1-3-4--------
Bb--2-4---------2-4---------2-4---------2-4---------------------------
--------------------------------------------------------------------------
---------------------------------------------------------------2----------
----------4----------2-3-4-----------4-----------2-3-4----------------2-3-
-0-1-3-4----0-1-3-4---------0-1-3-4-----0-1-3-4---------0-1-3----33-4-----
--------------------------------------------------------------------------
--------------------------------------------------------------------------
--------------------------0--------------0-2-3-2-0------------------------
--------------3-----1-2-3----------1-2-3-----------3--2--0----------------
---------33-4-----3----------0-2-3----------------------------------------
-3-4-5--------------------------------------------------------------------
(6:04)Clean
Gb-----------------------------------------------------------------------
Db-----------------------------------------------------------------------
Ab-----------------------------------------------------------------------
Eb--5-5-55--1-1-11/--5-5-55--1-1-11/--8-8-88--4-4-44/--8-8-88-4-4-44-
Bb-----------------------------------------------------------------------
(6:23)Distorted
Gb-----------------------------------------------
Db-----------------------------------------------
Ab----------------------------------------------
Eb-----1-3-4------1-3-4------1-3-4------1-3-4----
Bb-2-4-------2--4--------2-4--------2-4----------
---------------------
---------------------
4------------2-3-4---
--0-1-3-4------------
---------------------
-------------------------------------------------------
-------2----------------------------------0------------
--------------1-2--------------1----1-2-3---------1-2-3
0-1-3----3-4---------------3-4----3---------0-2-3------
-------------------3-4-5-------------------------------
--------------------
0-2-3-2-0-----------
----------3--2----0-
--------------------
--------------------
(6:54) Clean
Gb-------------------------------------------------------------------------
Db-------------------------------------------------------------------------
Ab----------------------------------------------------------4-4-44---------
Eb-5-5-55-1-1-11-5-5-55-1-1-11-8-8-88-4-4-44-8-8-88-4-4-44---------5-5-55--
Bb-------------------------------------------------------------------------
-------------------------------------------------
-------------------------------------------------
-4-4-44---------7-7-77----------7-7-77-----------
--------5-5-55---------8-8-88-------------8-8-88-
-------------------------------------------------
(7:30)Distorted
Gb------14------15-------14-------15--------15-----14-------15------14-
Db--12------12------12-------12--------10-------10------10------10-----
Ab--------------------------------------------------------------------- X4
Eb---------------------------------------------------------------------
Bb---------------------------------------------------------------------
(7:51)
Gb--------------------------------------------
Db--------------------------------------------
Ab--------------------------------------------
Eb--------------------------------------------
Bb-3333333333-1111111111-333333333-11111111---
----------------------------------------
----------------------------------------
---------------------------------------- X1
--6666666666--5555555---333--111--00-55-
----------------------------------------
(8:10)
Gb----------------------------------
Db------------7-5-------------------
Ab-5555555/7------765--33333333-----X2
Eb----------------------------------
Bb----------------------------------
(8:20)
Gb-------------------------------------------------------
Db-------------------------------------------------------
Ab-------------------------------------------------------
Eb--555555-6666666-888888888-------------55555555-666666-
Bb---------------------------88888888--------------------
-----------------------------
-----------------------------
-------------------000000000-
1111111 000000000------------
-----------------------------
(8:37)
Gb-------------------------------------------------------------------------
Db-------------------------------------------------------------------------
Ab--55555555--7777777777-333333333--888888888------------------------4444--
Eb---------------------------------------------66666--33333--55555---------
Bb-------------------------------------------------------------------------
--------------------------------------------------------------------------
--------------------------------------------------------------------------
-55555-777777/--13-13-13-13--888888888-----------------------------------
-------------------------------------------66666---333333--55555555555555-
--------------------------------------------------------------------------
(9:02)Same Riff as 8:37 only a little faster
(9:54) Bass plays the same as keyboards(i think!) FAST!!
Gb--------15-14-15-14---------17-15-17-15------14-12-14-12------
Db---12----------------12-14---------------10---------------10--
Ab--------------------------------------------------------------
Eb--------------------------------------------------------------
Bb--------------------------------------------------------------
-----15-14-15-14----------14-12-14-12----------14-12-14-12--------
--15---------------15-12----------------12-10---------------------
------------------------------------------------------------------
------------------------------------------------------------------
------------------------------------------------------------------
------------------------------------------------------------------
-------15-14-15-14---------15-14-15-14----------------------------
-10-15--------------12--15----------------------------------------
------------------------------------------------------------------
------------------------------------------------------------------
(10:05)
-----15-14-15-14-------17-15-17-15-------14-12-14-12--------15-14-15-14-
-12--------------12-14-------------14-10--------------10-15-------------
------------------------------------------------------------------------
------------------------------------------------------------------------
------------------------------------------------------------------------
--------14-12-14-12--------14-12-14-12-----10-9-10-9------10-9-10-9--
-15-12--------------12-10---------------10------------10-------------
---------------------------------------------------------------------
---------------------------------------------------------------------
---------------------------------------------------------------------
-----15-14-15-14-------15-14-15-14------------------------
--15-------------12-15---------------15-------------------
----------------------------------------------------------
----------------------------------------------------------
----------------------------------------3~---1~---3~--1~--
-----------------------------
-----------------------------
-----------------------------
6-5-3-1-0-5-5-5-5-5-5-5-5----
--------------------------3~-
H:hammer on
~:let ring
/: Slide up
: Slide Down
OK, thats all of it. i was't able to tab the timing and i'm sorry for that but
i wasn't able to. Any corrections please e-mail me.





Ваше мнение



Капча