scene Two: 1. Overture 1928 Tuning
By Dream Theater e,a,d,g,b,e
Tabbed by
Buckethead
Overture 1928
P.M. througout------------------------------------------------------------|
----------[----------------------------------------]----------------------|
----------[------Repeat 7 times--------------------]----------------------|
----------[----------------------------------------]----------------------|
-0-0-0-0--[- 0-0-0-0-0-0-0---0-0-0-0----0-0-0-0----]----------------------|
----------[----------------------------------------]----------------------|
----------[----------------------------------------]----------------------|
-------------------------------------------------------------------------------|
-------------------------------------------------------------------------------|
7-7-7-7-7----7-7-7-7-7-7-7---7-7-7-7---7-7-7-7---------------------------------|
7-7-7-7-7----7-7-7-7-7-7-7---7-7-7-7---7-7-7-7---------------------------------|
5-5-5-5-5----5-5-5-5-5-5-5---5-5-5-5---5-5-5-5---------------------------------|
5-5-5-5-5----5-5-5-5-5-5-5---5-5-5-5---5-5-5-5---------------------------------|
pm-- pm-- pm-- pm-- pm-- pm---------------------------|
-------------------------------------------------------------------------------------------|
7----7-------7---------7--------7---7--------7--7---------10-------------------------------|
7----7-------7---------7--------7---7--------7--7---------7--------------------------------|
0----0--0-0--0----0-0--0--0-0---0---0--0-0---0--0---0-0---0---0-0--------------------------|
-------------------------------------------------------------------------------------------|
-------------------------------------------------------------------------------------------|
pm-- pm-- pm-- pm-- pm-- pm-------------------------|
------------------------------------------------------------------------------------------|
9---9---------9----------9--------9---9----------9---------10-----------------------------|
7---7---------7----------7--------7---7----------7---------7------------------------------|
0---0--0--0---0---0--0---0--0--0--0---0---0--0---0---0--0--0---0--0-----------------------|
------------------------------------------------------------------------------------------|
------------------------------------------------------------------------------------------|
pm-- pm-- pm-- pm-- pm-- pm--
------------------------------------------------------------------------------------------|
7---7-----------7----------7----------7--7--------7--7--------10--------------------------|
7---7-----------7----------7----------7--7--------7--7--------7---------------------------|
0---0----0--0---0---0--0---0---0--0---0--0--0--0--0--0--0--0--0---0-0---------------------|
------------------------------------------------------------------------------------------|
------------------------------------------------------------------------------------------|
pm-- pm-- pm------------------------------------------------------------|
--------------------------------------------------------------------------------------|
9--9--------9--------9--------9-10-9-7------------------------------------------------|
7--7--------7--------7-----------------9-7-6-9-7-6------------------------------------|
0--0--0--0--0--0--0--0---0-0-----------------------9-7-6-9-7-6------------------------|
----------------------------------------------------------------9-7-5-----------------|
--------------------------------------------------------------------------------------|
Rht.Fig 1
-----------[--------------------------------------------------------------------|
-----------[-----------0------0----------0---0---------------0------------------|
-----------[--2------2---2-------------4-------4-----2-----2--------------------|
-----------[--2---2--------2------4--4-----------4---2---2----------4-----------|
9-7-5------[--0-------------------2------------------0------------2-------------|
-------9-7-[----------------------------------------------------0---------------|
--------------------------------------------------------------------------------|
-----------------------0--------0------------0---0-----------------3------------|
------0---0------2---2----2---------------4---------4------5-----5--------------|
----4---3--------2-2---------2------4--4---------------4---5--5-----------------|
--4---------4----0------------------2----------------------3--------------------|
2-------------------------------------------------------------------------------|
pm---
---------------3--2-]------------------------------------------------------------|
-3---3------3-----3-]------------------------------------------------------------|
-----2---2----------]------------------------------------------------------------|
-----0--------------]------------------------------------------------------------|
--------------------]---------------------2-2-2-----5--4-------------------------|
--------------------]--------0-2-4-6---0--0-0-0-----------2--4-------------------|
pm--- pm---- pm-----------------------------------|
-----------------------------------------------------------------------------------------|
-----------------------------------------------------------------------------------------|
-----------------------------------------------------------------------------------------|
---------------------------------------------4-6-----------------------------------------|
---2---2-2------------------2-2-2-2------5-7--------------------3-5-7--------------------|
0--0---0-0--0-2-4-6-----0---0-0-0-0-------------------0---2-4-6--------------------------|
pm--- pm---------------------------------|
--------------------------------------------------------------------------------------|
--------------------------------------------------------------------------------------|
--------------------------------------------------------------------------------------|
--------------------------------------------------------------------------------------|
--------3--5-7----------------2-2-2----5-4----------2-2-2-----------------------------|
0-2-4-6-----------0-2-4-6--0--0-0-0--------2-4---0--0-0-0-----------------------------|
4
pm-----
--------------------------------------------------------------------------------------|
--------------------------------------------------------------------------------------|
--------------------------------------------------------------------------------------|
-------------------------------4-6------------------------0--3------------------------|
-------------2-2-2-2-2-----5-7-----7-5------7---5---3-1---0--3------------------------|
0-2-4-6---0--0-0-0-0-0------------------6-4---6---4-----2----1------------------------|
pm------------------------------------------------------------------------------------|
--------------------------------------------------------------------------------------|
---------------------------------------7---7-----------7------------------------------|
---------------------------------------7---7-----------7------------------------------|
---------------------------------------0---0----0-0----0---0-0------------------------|
--------------------------------------------------------------------------------------|
0-0-0----0-0-0-0-0-0-0----0-0-0-0-----------------------------------------------------|
-------------------------------------------------------------------------------------------|
7---7--------7--7--------10---------9--9---------9----------9------------------------------|
7---7--------7--7--------7----------7--7---------7----------7------------------------------|
0---0--0-0---0--0---0-0--0----0-0---0--0---0-0---0----0-0---0--0-0-------------------------|
-------------------------------------------------------------------------------------------|
-------------------------------------------------------------------------------------------|
---------------------7---------------------------------------------------------------|
9--9--------9---9h-10---10p-9-----7---7---------7--------7---------------------------|
7--7--------7---------------------7---7---------7--------7---------------------------|
0--0---0-0--0---------------------0---0---0-0---0---0-0--0----0-0--------------------|
-------------------------------------------------------------------------------------|
-------------------------------------------------------------------------------------|
----------------------------------------------------------------------------------------------|
7--7---------7---7--------10---------9---9---------9--------9-------9-------------------------|
7--7---------7---7--------7----------7---7---------7--------7-------7-------------------------|
0--0---0-0---0---0---0-0--0----0-0---0---0---0--0--0---0-0--0--0-0--0-------------------------|
----------------------------------------------------------------------------------------------|
----------------------------------------------------------------------------------------------|
solo b1/2
-----------------------]--------------------------------------------------|
-----------------s7-7--7-----------------7h8h10p8----7-8-7h8p7------------|
--------------s4----------7h9s11--9--9--------------------------9---------|
---4--5------------------------------------------------------------9------|
---5--5-------------------------------------------------------------------|
0-0--------0--------------------------------------------------------------|
b1/2 ah
---------------]--------------------------------------------------------------------------|
---------7-----7------------7-8-------7-8-10-8h10p8-7-s10-10------------------------------|
6h-9-7-9--------------9-7-9---------9-----------------------------------------------------|
----------------------------------9-------------------------------------------------------|
------------------------------------------------------------------------------------------|
------------------------------------------------------------------------------------------|
b1 b1/2 b1/2
----------------------]------------------]---------14h18p14--------------------------------|
------------14-17----17------]-------16-16--14h17-----------17p14--------------------------|
------15-16-----------------15-------------------------------------------------------------|
14-16--------------------16-----16---------------------------------------------------------|
-------------------------------------------------------------------------------------------|
-------------------------------------------------------------------------------------------|
b1 b1/2
----------------]-------]------------------------------------------------------------------|
---------------17--------------------------------------------------------------------------|
16p15------------------15------------15s13s11------13s11----9------------------------------|
-------16p14--------16----16---------------------------------------------------------------|
-----------------------------14-13---13s11s9-------11s9-----7------------------------------|
-------------------------------------------------------------------------------------------|
b1 b1/2 b1/2
------------]------]---------]--------------18h21p18---------------------------------------|
------14---17------------16-16----17h19------------19-17-19-------17-----------------------|
---15-------------15----------------------------------------18s15--------------------------|
16-------------16----16--------------------------------------------------------------------|
-------------------------------------------------------------------------------------------|
-------------------------------------------------------------------------------------------|
-----------------------------------14-------------------------------------------------------|
16-17p16p14---------------------------------------------------------------------------------|
------------17-16-15-14-15-16-17-------17-16-15-14------------------------------------------|
----------------------------------------------------16--------------------------------------|
--------------------------------------------------------------------------------------------|
--------------------------------------------------------------------------------------------|
b1/2
---------------------------------------------------------]----------------------------|
----------14--------------------------------------17-19-19----------------------------|
-----------------------------14-16-17-14-16-17s19-------------------------------------|
14-15-16------16-15-14-15-16----------------------------------------------------------|
--------------------------------------------------------------------------------------|
--------------------------------------------------------------------------------------|
Rhy. Fig.1 solo2 b1
[--]--------------------------------------------]---------------------------------|
[--]---------------s4h5--7--4-----------------------------4-5s7-------------------|
[--]--------------------------4-----4h6p4---6---6-------6-------------------------|
[--]------------------------------6------------------s6---------------------------|
[--]------------------------------------------------------------------------------|
[--]------------------------------------------------------------------------------|
b1/2 b1 b1
] ]
---------9-11---11---9-----]--------11--14--11-----------------------------------------|
9s12-12----------------9--12-----12------------12------12-------12---------------------|
------------------------------11------------------11-------11s9------------------------|
---------------------------------------------------------------------------------------|
---------------------------------------------------------------------------------------|
---------------------------------------------------------------------------------------|
-------------------------------------7-------------------------------------------|
-----------------------------------8---10-8-7------------------------------------|
-9s8------9-8------9-7-----------9------------9--7------------------7------------|
-----9------------------10-9-10--------------------10-9-7---------9--------------|
-------9--------------------------------------------------10-9-10----------------|
---------------------------------------------------------------------------------|
---------------------------------7s10---------------------------------------------|
7--------8-7------------------8-------10-8-7s10-----------------------------------|
--9------------9-7----------9--------------------9-7------9-7---------------------|
--------------------10-9-10--------------------------10-9-----7s10----------------|
----------------------------------------------------------------------------------|
----------------------------------------------------------------------------------|
-------------------------------------------------------------------------------|
------------7s10-8-7-----------------------------------------------------------|
----------7----------9-7-------9-----------------------------------------------|
--------9----------------7s10----7---------------------------------------------|
10-9-10----------------------------7s10----------------------------------------|
-------------------------------------------------------------------------------|
----------------7---------------------------------------------------|
--------------8---10-8-7-------------------------7------------------|
9-7---------9------------9-7-------------------7---9-7--------------|
----10-9-10------------------10-9--7---------9---------10-9-7-10----|
-------------------------------------10-9-10---------------------9--|
--------------------------------------------------------------------|
pm..........................................................
---------------------------------------------------------------------------------------|
---------------------------------------------------------------------------------------|
---------------------------------------------------------------------------------------|
---------------------------------------------------------------------------------------|
----------7----6-----5-4----3-2----1-0------------------3-3-2-2-1-0--------------------|
12s0--------7----7-0------0------0------2--3-3-2-2-1-1--------------3------------------|
pm.........................................................
-------------------------------------------------------------|
-------------------------------------------------------------|
-------------------------------------------------------------|
-------------------------------------------------------------|
7----6-----5-4----3-2----1-0------------------3-3-2-2-1-0----|
--7----7-0------0------0------2--3-3-2-2-1-1--------------2--|
pm....................... pm-- pm--
---------------------------------------------------------------------------------|
---------------------------------------------------------------------------------|
--------------------------------8-------8---7---5---------8----10----------------|
------------------------2-------6--6-6--6---6---6---6-6---6----6-----------------|
-------------3-3-2-2-1--0--------------------------------------------------------|
3-3-2-2-1-1----------------------------------------------------------------------|
pm--
-----------------------------------------------------------------------------------|
-----------------------------------------------------------------------------------|
7----8-------5----------5---4-----2---2-4---5----7----4----5-----------------------|
6----6-------3----3-3---3---3-----3---3-----3----3----3----3-----------------------|
-----------------------------------------------------------------------------------|
-----------------------------------------------------------------------------------|
pm-- pm--
-------------------------------------------------------------------------------------|
7---6---4--------7--6----4---------9---9---7---6-------------------------------------|
4---4---4---4-4--4--4----4---4-4---6---6---6---6----6-6------------------------------|
-------------------------------------------------------------------------------------|
-------------------------------------------------------------------------------------|
-------------------------------------------------------------------------------------|
-------------------------------------------------------------------------------------------|
9---9---7----6-----------------------------------------------------------------------------|
6---6---6----6---6-6------8-8-8-8----8-8-8-8---7-7-7----7-7-7-7----------------------------|
--------------------------6-6-6-6----6-6-6-6---6-6-6----6-6-6-6----------------------------|
-------------------------------------------------------------------------------------------|
--------------------------4-4-4-4----4-4-4-4---4-4-4----4-4-4-4----------------------------|
---------------------------------------------------------------------|
---------------------------------------------------------------------|
---------------------------------------------------------------------|
---------------------------------------------------------------------|
---------------------------------------------------------------------|
---------------------------------------------------------------------|
---------------------------------------------------------------------|
---------------------------------------------------------------------|
---------------------------------------------------------------------|
---------------------------------------------------------------------|
---------------------------------------------------------------------|
---------------------------------------------------------------------|
---------------------------------------------------------------------|
---------------------------------------------------------------------|
---------------------------------------------------------------------|
---------------------------------------------------------------------|
---------------------------------------------------------------------|
---------------------------------------------------------------------|





Ваше мнение



Капча