Dream Theater, One Last Time.
Tabbed by FOX, [email protected]

Verse 1.
Legend
------
h = hammer-on
p = pull-off
b = bend
r = bend release
t = tap
/ = slide up/down
~ = vibrato
0:36
Pm x4 Pm
|----------------------------|------------------------------------------------------------|
|----------------------------|--2-2-2-2--5-4-2--2-2-2--5-4-----------5-4-4--4-4-4--7-5-2--|
|----------------------------|-----------------------------4--4-4-4-----------------------|
|----------------------------|------------------------------------------------------------|
|--4---4-4-4---4-4---4-4-4---|------------------------------------------------------------|
|----------------------------|------------------------------------------------------------|
' ' ' ' ' ' ' ' ' ' ' ' ' ' ' ' ' ' ' ' ' '
Pm
|--------------------------------------------------------------|
|--2-2-2-2--5-4-4--4-4-4--5-4-----------5-4-4--4-4-4--5-4------|
|-----------------------------4--4-4-4--------------------6-4--|
|--------------------------------------------------------------|
|--------------------------------------------------------------|
|--------------------------------------------------------------|
' ' ' ' ' ' ' ' ' ' ' ' '
1:11
Chorus.
let ring... x2
|----------0---------------0--------------0--------------0-----|
|--------0---0-----------0---0----------0---0----------0---0---|
|------6---------------4---------------------------------------|
|----6---------------4--------------6--------------7-----------|
|--4---------------2--------------6--------------7-------------|
|-------------------------------4--------------5---------------|
|-------------------------------------------------|
|-------------------------------------------------|
|--6--4---------------------6---------------------|
|--6--4--------6--7---------6------------------7--|
|--4--2--4--6--6--7--7-7-6--4--6h7p6--6-9-11---7--|
|--------------4--5--------------------------4-5--|
1:47
Bridge:
let ring... ~vibrate with whammy bar
|-----0------------0--------------0-----------0-------------|
|-------0------------0--------------0-----------0-----------|
|--3------3-----3------3-------3------3~---3------3---------|
|--4--------4---4--------4-2---4-----------4--------4-2-----|
|--4------------4--------------4-----------4----------------|
|--2------------2--------------2-----------2----------------|
full half full half full*
|-----------------------------------------------------------------------------------------|
|--17b-------------------------14--17b---------------17b--t21-t22-t24---------------------|
|----------15b-------/11-----15--------------15b------------------------------------------|
|------16--------16--------16-------------16-------16-------------------------------------|
|-----------------------------------------------------------------------------------------|
|-----------------------------------------------------------------------------------------|
*Hold the bending, while tapping this notes fast (Note: if you dont have 24 frets on
Your guitar, you can do it on the 1st string instade, but im prety sure petrucci dose it
On the 2nd string)
full full half
|--------------------------------------14h18p14------------------------|
|--17b--17b---------------15-16--14-17----------17-14------------------|
|----------------15b----------------------------------16-15------------|
|------------16-------16------------------------------------16-14------|
|----------------------------------------------------------------------|
|----------------------------------------------------------------------|
full half full full
|-----------------------------------14---------14--------------------------------------------------|
|--17b---------------------------------14-17b-----17-14h17p14----14--------------------------------|
|-----------15b------14------14-16b---------------------------16----16-14-14h16p14----14-----------|
|-------16-------16-------16-------------------------------------------------------16----16-14-16--|
|--------------------------------------------------------------------------------------------------|
|--------------------------------------------------------------------------------------------------|
Im not sure about the last few notes, its some sort of a pantatonic line, but i cant figure it out.
2:19
Chorus:
Let ring...
|---0--0--0--0------0--------0--0--0---0-----0--0--0--0--0---------|
|---0--0--0--0----0---0------0--0--0---0-----0--0--0--0--0---------|
|---6--8--6--3--3-------3----6--8--9---11----6--8--6--8--11--------|
|---7--9--7--4------------4--7--9--10--12----7--9--7--9--12--2-----|
|---7--7--7--4---------------7--7--10--12----7--9--7--9--12--2-----|
|---5--7--5--2---------------5--7--8---10----5--7--5--7--10--0-----|
2:46
full* half
|--------------------------------------------------------------------------19~----|
|----------------------12-14-15~--14-15----15b-r15p14----14----14b--/12-14--------|
|-13-14-13h14p13------------------------14------------16----16--------------------|
|----------------16-14------------------------------------------------------------|
|---------------------------------------------------------------------------------|
|---------------------------------------------------------------------------------|
In the line above im prety sure petrucci uses an octaver, cause you can here both the low
And high notes, and some of those high notes, are impossible to reach on a guitar, maybe with
Pinched notes, if you find out the exact notes, let me know.
*Note: Bend full, then release back to starting note.
|-------------------------------------------------------------------------------|
|--10-12-10-13~--13-12-13--12-13-15-16~--15-16-18~--16-18-16~--16-15-16-15------|
|-------------------------------------------------------------------------------|
|-------------------------------------------------------------------------------|
|-------------------------------------------------------------------------------|
|-------------------------------------------------------------------------------|
|--16--16-15-13--16--16-15-13--16--16-15-13--16--15--13-------------|
|-------------------------------------------------------16--16/13---|
|-------------------------------------------------------------------|
|-------------------------------------------------------------------|
|-------------------------------------------------------------------|
|-------------------------------------------------------------------|





Ваше мнение



Капча