?----------------------------------PLEASE NOTE---------------------------------?
?This file is the author's own work and represents their interpretation of the ?
?song. You may only use this file for private study, scholarship, or research. ?
?------------------------------------------------------------------------------?
Song: Misunderstood
Band: Dream Theater
Album: Six Degrees Of Inner Turbulence (Disk 1, Track 3)
Please eMail me for comments on this one (its the first TAB I put in the net,
especially mail me if you find out the chord in the first line!)
tabbed by: [email protected]
Listen to the song for the correct timing!
Tuning Drop D (DADGBe)
( Not too sure/happy about this chord----> ? )
^
?
e|--2---------2-3-2---0---------0---0h2---------2-3-2--------------|
B|--3---3-----------3-3---3----3----3-----3-----------3----1-------|
G|--2-------2---------2-------2-----2---------2------------3----3--|
D|--0-----------------0-------------0------------------------------|
A|---------------------------------------------------------3-------|
D|-----0-----------------0---------------0-----------------0---0---|
e -----0---2---------2-3-2---0-------------------0-----------------|
B ---1-----3---3-----------3-3---3----3---2-----3---0-----------0--|
G ---------2-------3---------2-------3----2---2-----4---2-------4--|
D ---------0-----------------0------------2--2------3-------2---2--|
A --3-------------------------------------0---------0--0---0----0--|
D ------------0-----------------0----------------------------------|
e ----------------------------------------------------------------|
B -----------0----------------------------------------------------|
G ---2-------4--5-4-2---------------------------------------------|
D -------2---3----------------------------------------------------|
A --0---0----0----------------------------------------------------|
D ----------------------------------------------------------------|
Verse (0:40)
e|-2-------2-3-2---0---------0---0h2---------2-3-2---------------0--|
B|-3---3---3-----3-3---3----3----3-----3-----3-----3---1--------1---|
G|-2-------2-------2-------2-----2---------2-2---------3----3-------|
D|-0---------------0-------------0----------------------------------|
A|-----------------------------------------------------3-------3----|
D|----0---------------0---------------0----------------0---0--------|
e -2---------2-3-2---0---------------------------------------------|
B -3---3-----3-----3-3---3----3------3-------2-------3---------2---|
G -2-------2-2-------2-------3-----0---0---0---0---0---0-----0---0-|
D -0-----------------0-----------0---------------------------------|
A ---------------------------------------0-------1--------0--------|
D ----0-----------------0------------------------------------------|
e -2-------2-3-2---0---------0--0h2---------2-3-2---------------0--|
B -3---3---3-----3-3---3----3---3-----3-----3-----3---1--------1---|
G -2-------2-------2-------2----2---------2-2---------3----3-------|
D -0---------------0------------0----------------------------------|
A ----------------------------------------------------3-------3----|
D ----0---------------0--------------0----------------0---0--------|
e -2---------2-3-2---0---------------------------------------------|
B -3---3-----3-----3-3---3----3------3-------2-------3---------2---|
G -2-------2-2-------2-------3-----0---0---0---0---0---0-----0---0-|
D -0-----------------0-----------0---------------------------------|
A ---------------------------------------0-------1--------0--------|
D ----0-----------------0------------------------------------------|
e ----------------------------------------------------------------|
B ------3-------2-------------------------------------------------|
G ----0---0---0---0------3-2-----3-2------3-2------3-2------------|
D --0------------------0-------0--------0--------0----------------|
A ----------0-----------------------------------------------------|
D -------------------0-------2--------3--------5------------------|
...so far for now, t.b.c.!





Ваше мнение



Капча